  0
SECTION
  2
HEADER
  9
$ACADVER
  1
AC1014
  9
$HANDSEED
  5
FFFF
  9
$MEASUREMENT
 70
     1
  0
ENDSEC
  0
SECTION
  2
TABLES
  0
TABLE
  2
VPORT
  5
8
330
0
100
AcDbSymbolTable
 70
     4
  0
VPORT
  5
2E
330
8
100
AcDbSymbolTableRecord
100
AcDbViewportTableRecord
  2
*ACTIVE
 70
     0
 10
0.0
 20
0.0
 11
1.0
 21
1.0
 12
210.0
 22
148.5
 13
0.0
 23
0.0
 14
10.0
 24
10.0
 15
10.0
 25
10.0
 16
0.0
 26
0.0
 36
1.0
 17
0.0
 27
0.0
 37
0.0
 40
341.0
 41
1.24
 42
50.0
 43
0.0
 44
0.0
 50
0.0
 51
0.0
 71
     0
 72
   100
 73
     1
 74
     3
 75
     0
 76
     0
 77
     0
 78
     0
  0
ENDTAB
  0
TABLE
  2
LTYPE
  5
5
330
0
100
AcDbSymbolTable
 70
     1
  0
LTYPE
  5
14
330
5
100
AcDbSymbolTableRecord
100
AcDbLinetypeTableRecord
  2
BYBLOCK
 70
     0
  3

 72
    65
 73
     0
 40
0.0
  0
LTYPE
  5
15
330
5
100
AcDbSymbolTableRecord
100
AcDbLinetypeTableRecord
  2
BYLAYER
 70
     0
  3

 72
    65
 73
     0
 40
0.0
  0
LTYPE
  5
16
330
5
100
AcDbSymbolTableRecord
100
AcDbLinetypeTableRecord
  2
CONTINUOUS
 70
     0
  3
Solid line
 72
    65
 73
     0
 40
0.0
  0
ENDTAB
  0
TABLE
  2
LAYER
  5
2
100
AcDbSymbolTable
 70
2
  0
LAYER
  5
50
100
AcDbSymbolTableRecord
100
AcDbLayerTableRecord
  2
0
 70
0
  6
CONTINUOUS
  0
LAYER
  5
51
100
AcDbSymbolTableRecord
100
AcDbLayerTableRecord
  2
Layer_1
 70
0
  6
CONTINUOUS
  0
ENDTAB
  0
TABLE
  2
STYLE
  5
3
330
0
100
AcDbSymbolTable
 70
     1
  0
STYLE
  5
11
330
3
100
AcDbSymbolTableRecord
100
AcDbTextStyleTableRecord
  2
STANDARD
 70
     0
 40
0.0
 41
1.0
 50
0.0
 71
     0
 42
2.5
  3
txt
  4

  0
ENDTAB
  0
TABLE
  2
VIEW
  5
6
330
0
100
AcDbSymbolTable
 70
     0
  0
ENDTAB
  0
TABLE
  2
UCS
  5
7
330
0
100
AcDbSymbolTable
 70
     0
  0
ENDTAB
  0
TABLE
  2
APPID
  5
9
330
0
100
AcDbSymbolTable
 70
     2
  0
APPID
  5
12
330
9
100
AcDbSymbolTableRecord
100
AcDbRegAppTableRecord
  2
ACAD
 70
     0
  0
ENDTAB
  0
TABLE
  2
DIMSTYLE
  5
A
330
0
100
AcDbSymbolTable
 70
     1
  0
DIMSTYLE
105
27
330
A
100
AcDbSymbolTableRecord
100
AcDbDimStyleTableRecord
  2
ISO-25
 70
     0
  3

  4

  5

  6

  7

 40
1.0
 41
2.5
 42
0.625
 43
3.75
 44
1.25
 45
0.0
 46
0.0
 47
0.0
 48
0.0
140
2.5
141
2.5
142
0.0
143
0.03937007874016
144
1.0
145
0.0
146
1.0
147
0.625
 71
     0
 72
     0
 73
     0
 74
     0
 75
     0
 76
     0
 77
     1
 78
     8
170
     0
171
     3
172
     1
173
     0
174
     0
175
     0
176
     0
177
     0
178
     0
270
     2
271
     2
272
     2
273
     2
274
     3
340
11
275
     0
280
     0
281
     0
282
     0
283
     0
284
     8
285
     0
286
     0
287
     3
288
     0
  0
ENDTAB
  0
TABLE
  2
BLOCK_RECORD
  5
1
330
0
100
AcDbSymbolTable
 70
     1
  0
BLOCK_RECORD
  5
1F
330
1
100
AcDbSymbolTableRecord
100
AcDbBlockTableRecord
  2
*MODEL_SPACE
  0
BLOCK_RECORD
  5
1B
330
1
100
AcDbSymbolTableRecord
100
AcDbBlockTableRecord
  2
*PAPER_SPACE
  0
ENDTAB
  0
ENDSEC
  0
SECTION
  2
BLOCKS
  0
BLOCK
  5
20
330
1F
100
AcDbEntity
  8
0
100
AcDbBlockBegin
  2
*MODEL_SPACE
 70
     0
 10
0.0
 20
0.0
 30
0.0
  3
*MODEL_SPACE
  1

  0
ENDBLK
  5
21
330
1F
100
AcDbEntity
  8
0
100
AcDbBlockEnd
  0
BLOCK
  5
1C
330
1B
100
AcDbEntity
 67
     1
  8
0
100
AcDbBlockBegin
  2
*PAPER_SPACE
  1

  0
ENDBLK
  5
1D
330
1B
100
AcDbEntity
 67
     1
  8
0
100
AcDbBlockEnd
  0
ENDSEC
  0
SECTION
  2
ENTITIES
  0
SPLINE
  5
100
100
AcDbEntity
  8
Layer_1
 62
7
100
AcDbSpline
 70
8
 71
3
 72
8
 73
4
 74
0
 40
0
 40
0
 40
0
 40
0
 40
1
 40
1
 40
1
 40
1
 10
30.434895
 20
54.051339
 30
0.0
 10
30.434895
 20
53.426123
 30
0.0
 10
30.101348
 20
52.848402
 30
0.0
 10
29.559894
 20
52.535795
 30
0.0
  0
SPLINE
  5
101
100
AcDbEntity
  8
Layer_1
 62
7
100
AcDbSpline
 70
8
 71
3
 72
8
 73
4
 74
0
 40
0
 40
0
 40
0
 40
0
 40
1
 40
1
 40
1
 40
1
 10
29.559894
 20
52.535795
 30
0.0
 10
29.018443
 20
52.223187
 30
0.0
 10
28.351347
 20
52.223187
 30
0.0
 10
27.809895
 20
52.535795
 30
0.0
  0
SPLINE
  5
102
100
AcDbEntity
  8
Layer_1
 62
7
100
AcDbSpline
 70
8
 71
3
 72
8
 73
4
 74
0
 40
0
 40
0
 40
0
 40
0
 40
1
 40
1
 40
1
 40
1
 10
27.809895
 20
52.535795
 30
0.0
 10
27.268444
 20
52.848402
 30
0.0
 10
26.934894
 20
53.426123
 30
0.0
 10
26.934894
 20
54.051339
 30
0.0
  0
SPLINE
  5
103
100
AcDbEntity
  8
Layer_1
 62
7
100
AcDbSpline
 70
8
 71
3
 72
8
 73
4
 74
0
 40
0
 40
0
 40
0
 40
0
 40
1
 40
1
 40
1
 40
1
 10
26.934894
 20
54.051339
 30
0.0
 10
26.934894
 20
54.676554
 30
0.0
 10
27.268444
 20
55.254275
 30
0.0
 10
27.809895
 20
55.566885
 30
0.0
  0
SPLINE
  5
104
100
AcDbEntity
  8
Layer_1
 62
7
100
AcDbSpline
 70
8
 71
3
 72
8
 73
4
 74
0
 40
0
 40
0
 40
0
 40
0
 40
1
 40
1
 40
1
 40
1
 10
27.809895
 20
55.566885
 30
0.0
 10
28.351347
 20
55.879490
 30
0.0
 10
29.018443
 20
55.879490
 30
0.0
 10
29.559894
 20
55.566885
 30
0.0
  0
SPLINE
  5
105
100
AcDbEntity
  8
Layer_1
 62
7
100
AcDbSpline
 70
8
 71
3
 72
8
 73
4
 74
0
 40
0
 40
0
 40
0
 40
0
 40
1
 40
1
 40
1
 40
1
 10
29.559894
 20
55.566885
 30
0.0
 10
30.101348
 20
55.254275
 30
0.0
 10
30.434895
 20
54.676554
 30
0.0
 10
30.434895
 20
54.051339
 30
0.0
  0
SPLINE
  5
106
100
AcDbEntity
  8
Layer_1
 62
7
100
AcDbSpline
 70
8
 71
3
 72
8
 73
4
 74
0
 40
0
 40
0
 40
0
 40
0
 40
1
 40
1
 40
1
 40
1
 10
32.403766
 20
54.051360
 30
0.0
 10
32.403766
 20
51.997481
 30
0.0
 10
30.738772
 20
50.332488
 30
0.0
 10
28.684896
 20
50.332488
 30
0.0
  0
SPLINE
  5
107
100
AcDbEntity
  8
Layer_1
 62
7
100
AcDbSpline
 70
8
 71
3
 72
8
 73
4
 74
0
 40
0
 40
0
 40
0
 40
0
 40
1
 40
1
 40
1
 40
1
 10
28.684896
 20
50.332488
 30
0.0
 10
26.631020
 20
50.332488
 30
0.0
 10
24.966024
 20
51.997481
 30
0.0
 10
24.966024
 20
54.051360
 30
0.0
  0
SPLINE
  5
108
100
AcDbEntity
  8
Layer_1
 62
7
100
AcDbSpline
 70
8
 71
3
 72
8
 73
4
 74
0
 40
0
 40
0
 40
0
 40
0
 40
1
 40
1
 40
1
 40
1
 10
24.966024
 20
54.051360
 30
0.0
 10
24.966024
 20
55.379983
 30
0.0
 10
25.674837
 20
56.607685
 30
0.0
 10
26.825460
 20
57.271995
 30
0.0
  0
SPLINE
  5
109
100
AcDbEntity
  8
Layer_1
 62
7
100
AcDbSpline
 70
8
 71
3
 72
8
 73
4
 74
0
 40
0
 40
0
 40
0
 40
0
 40
1
 40
1
 40
1
 40
1
 10
26.825460
 20
57.271995
 30
0.0
 10
27.976083
 20
57.936308
 30
0.0
 10
29.393710
 20
57.936308
 30
0.0
 10
30.544332
 20
57.271995
 30
0.0
  0
SPLINE
  5
10a
100
AcDbEntity
  8
Layer_1
 62
7
100
AcDbSpline
 70
8
 71
3
 72
8
 73
4
 74
0
 40
0
 40
0
 40
0
 40
0
 40
1
 40
1
 40
1
 40
1
 10
30.544332
 20
57.271995
 30
0.0
 10
31.694952
 20
56.607685
 30
0.0
 10
32.403766
 20
55.379983
 30
0.0
 10
32.403766
 20
54.051360
 30
0.0
  0
SPLINE
  5
10b
100
AcDbEntity
  8
Layer_1
 62
7
100
AcDbSpline
 70
8
 71
3
 72
8
 73
4
 74
0
 40
0
 40
0
 40
0
 40
0
 40
1
 40
1
 40
1
 40
1
 10
136.858132
 20
27.875864
 30
0.0
 10
136.858132
 20
27.250648
 30
0.0
 10
136.524585
 20
26.672928
 30
0.0
 10
135.983131
 20
26.360320
 30
0.0
  0
SPLINE
  5
10c
100
AcDbEntity
  8
Layer_1
 62
7
100
AcDbSpline
 70
8
 71
3
 72
8
 73
4
 74
0
 40
0
 40
0
 40
0
 40
0
 40
1
 40
1
 40
1
 40
1
 10
135.983131
 20
26.360320
 30
0.0
 10
135.441679
 20
26.047712
 30
0.0
 10
134.774583
 20
26.047712
 30
0.0
 10
134.233132
 20
26.360320
 30
0.0
  0
SPLINE
  5
10d
100
AcDbEntity
  8
Layer_1
 62
7
100
AcDbSpline
 70
8
 71
3
 72
8
 73
4
 74
0
 40
0
 40
0
 40
0
 40
0
 40
1
 40
1
 40
1
 40
1
 10
134.233132
 20
26.360320
 30
0.0
 10
133.691680
 20
26.672928
 30
0.0
 10
133.358133
 20
27.250648
 30
0.0
 10
133.358133
 20
27.875864
 30
0.0
  0
SPLINE
  5
10e
100
AcDbEntity
  8
Layer_1
 62
7
100
AcDbSpline
 70
8
 71
3
 72
8
 73
4
 74
0
 40
0
 40
0
 40
0
 40
0
 40
1
 40
1
 40
1
 40
1
 10
133.358133
 20
27.875864
 30
0.0
 10
133.358133
 20
28.501079
 30
0.0
 10
133.691680
 20
29.078800
 30
0.0
 10
134.233132
 20
29.391408
 30
0.0
  0
SPLINE
  5
10f
100
AcDbEntity
  8
Layer_1
 62
7
100
AcDbSpline
 70
8
 71
3
 72
8
 73
4
 74
0
 40
0
 40
0
 40
0
 40
0
 40
1
 40
1
 40
1
 40
1
 10
134.233132
 20
29.391408
 30
0.0
 10
134.774583
 20
29.704015
 30
0.0
 10
135.441679
 20
29.704015
 30
0.0
 10
135.983131
 20
29.391408
 30
0.0
  0
SPLINE
  5
110
100
AcDbEntity
  8
Layer_1
 62
7
100
AcDbSpline
 70
8
 71
3
 72
8
 73
4
 74
0
 40
0
 40
0
 40
0
 40
0
 40
1
 40
1
 40
1
 40
1
 10
135.983131
 20
29.391408
 30
0.0
 10
136.524585
 20
29.078800
 30
0.0
 10
136.858132
 20
28.501079
 30
0.0
 10
136.858132
 20
27.875864
 30
0.0
  0
SPLINE
  5
111
100
AcDbEntity
  8
Layer_1
 62
7
100
AcDbSpline
 70
8
 71
3
 72
8
 73
4
 74
0
 40
0
 40
0
 40
0
 40
0
 40
1
 40
1
 40
1
 40
1
 10
138.827002
 20
27.875880
 30
0.0
 10
138.827002
 20
26.547253
 30
0.0
 10
138.118191
 20
25.319555
 30
0.0
 10
136.967569
 20
24.655242
 30
0.0
  0
SPLINE
  5
112
100
AcDbEntity
  8
Layer_1
 62
7
100
AcDbSpline
 70
8
 71
3
 72
8
 73
4
 74
0
 40
0
 40
0
 40
0
 40
0
 40
1
 40
1
 40
1
 40
1
 10
136.967569
 20
24.655242
 30
0.0
 10
135.816946
 20
23.990928
 30
0.0
 10
134.399319
 20
23.990928
 30
0.0
 10
133.248696
 20
24.655242
 30
0.0
  0
SPLINE
  5
113
100
AcDbEntity
  8
Layer_1
 62
7
100
AcDbSpline
 70
8
 71
3
 72
8
 73
4
 74
0
 40
0
 40
0
 40
0
 40
0
 40
1
 40
1
 40
1
 40
1
 10
133.248696
 20
24.655242
 30
0.0
 10
132.098074
 20
25.319555
 30
0.0
 10
131.389260
 20
26.547253
 30
0.0
 10
131.389260
 20
27.875880
 30
0.0
  0
SPLINE
  5
114
100
AcDbEntity
  8
Layer_1
 62
7
100
AcDbSpline
 70
8
 71
3
 72
8
 73
4
 74
0
 40
0
 40
0
 40
0
 40
0
 40
1
 40
1
 40
1
 40
1
 10
131.389260
 20
27.875880
 30
0.0
 10
131.389260
 20
29.204503
 30
0.0
 10
132.098074
 20
30.432204
 30
0.0
 10
133.248696
 20
31.096515
 30
0.0
  0
SPLINE
  5
115
100
AcDbEntity
  8
Layer_1
 62
7
100
AcDbSpline
 70
8
 71
3
 72
8
 73
4
 74
0
 40
0
 40
0
 40
0
 40
0
 40
1
 40
1
 40
1
 40
1
 10
133.248696
 20
31.096515
 30
0.0
 10
134.399319
 20
31.760828
 30
0.0
 10
135.816946
 20
31.760828
 30
0.0
 10
136.967569
 20
31.096515
 30
0.0
  0
SPLINE
  5
116
100
AcDbEntity
  8
Layer_1
 62
7
100
AcDbSpline
 70
8
 71
3
 72
8
 73
4
 74
0
 40
0
 40
0
 40
0
 40
0
 40
1
 40
1
 40
1
 40
1
 10
136.967569
 20
31.096515
 30
0.0
 10
138.118191
 20
30.432204
 30
0.0
 10
138.827002
 20
29.204503
 30
0.0
 10
138.827002
 20
27.875880
 30
0.0
  0
SPLINE
  5
117
100
AcDbEntity
  8
Layer_1
 62
7
100
AcDbSpline
 70
8
 71
3
 72
8
 73
4
 74
0
 40
0
 40
0
 40
0
 40
0
 40
1
 40
1
 40
1
 40
1
 10
79.423120
 20
27.617270
 30
0.0
 10
79.423120
 20
26.992057
 30
0.0
 10
79.089573
 20
26.414334
 30
0.0
 10
78.548122
 20
26.101726
 30
0.0
  0
SPLINE
  5
118
100
AcDbEntity
  8
Layer_1
 62
7
100
AcDbSpline
 70
8
 71
3
 72
8
 73
4
 74
0
 40
0
 40
0
 40
0
 40
0
 40
1
 40
1
 40
1
 40
1
 10
78.548122
 20
26.101726
 30
0.0
 10
78.006668
 20
25.789118
 30
0.0
 10
77.339574
 20
25.789118
 30
0.0
 10
76.798120
 20
26.101726
 30
0.0
  0
SPLINE
  5
119
100
AcDbEntity
  8
Layer_1
 62
7
100
AcDbSpline
 70
8
 71
3
 72
8
 73
4
 74
0
 40
0
 40
0
 40
0
 40
0
 40
1
 40
1
 40
1
 40
1
 10
76.798120
 20
26.101726
 30
0.0
 10
76.256668
 20
26.414334
 30
0.0
 10
75.923121
 20
26.992057
 30
0.0
 10
75.923121
 20
27.617270
 30
0.0
  0
SPLINE
  5
11a
100
AcDbEntity
  8
Layer_1
 62
7
100
AcDbSpline
 70
8
 71
3
 72
8
 73
4
 74
0
 40
0
 40
0
 40
0
 40
0
 40
1
 40
1
 40
1
 40
1
 10
75.923121
 20
27.617270
 30
0.0
 10
75.923121
 20
28.242486
 30
0.0
 10
76.256668
 20
28.820209
 30
0.0
 10
76.798120
 20
29.132817
 30
0.0
  0
SPLINE
  5
11b
100
AcDbEntity
  8
Layer_1
 62
7
100
AcDbSpline
 70
8
 71
3
 72
8
 73
4
 74
0
 40
0
 40
0
 40
0
 40
0
 40
1
 40
1
 40
1
 40
1
 10
76.798120
 20
29.132817
 30
0.0
 10
77.339574
 20
29.445422
 30
0.0
 10
78.006668
 20
29.445422
 30
0.0
 10
78.548122
 20
29.132817
 30
0.0
  0
SPLINE
  5
11c
100
AcDbEntity
  8
Layer_1
 62
7
100
AcDbSpline
 70
8
 71
3
 72
8
 73
4
 74
0
 40
0
 40
0
 40
0
 40
0
 40
1
 40
1
 40
1
 40
1
 10
78.548122
 20
29.132817
 30
0.0
 10
79.089573
 20
28.820209
 30
0.0
 10
79.423120
 20
28.242486
 30
0.0
 10
79.423120
 20
27.617270
 30
0.0
  0
SPLINE
  5
11d
100
AcDbEntity
  8
Layer_1
 62
7
100
AcDbSpline
 70
8
 71
3
 72
8
 73
4
 74
0
 40
0
 40
0
 40
0
 40
0
 40
1
 40
1
 40
1
 40
1
 10
81.391993
 20
27.617291
 30
0.0
 10
81.391993
 20
25.563416
 30
0.0
 10
79.726996
 20
23.898422
 30
0.0
 10
77.673121
 20
23.898422
 30
0.0
  0
SPLINE
  5
11e
100
AcDbEntity
  8
Layer_1
 62
7
100
AcDbSpline
 70
8
 71
3
 72
8
 73
4
 74
0
 40
0
 40
0
 40
0
 40
0
 40
1
 40
1
 40
1
 40
1
 10
77.673121
 20
23.898422
 30
0.0
 10
75.619245
 20
23.898422
 30
0.0
 10
73.954251
 20
25.563416
 30
0.0
 10
73.954251
 20
27.617291
 30
0.0
  0
SPLINE
  5
11f
100
AcDbEntity
  8
Layer_1
 62
7
100
AcDbSpline
 70
8
 71
3
 72
8
 73
4
 74
0
 40
0
 40
0
 40
0
 40
0
 40
1
 40
1
 40
1
 40
1
 10
73.954251
 20
27.617291
 30
0.0
 10
73.954251
 20
28.945915
 30
0.0
 10
74.663062
 20
30.173616
 30
0.0
 10
75.813685
 20
30.837927
 30
0.0
  0
SPLINE
  5
120
100
AcDbEntity
  8
Layer_1
 62
7
100
AcDbSpline
 70
8
 71
3
 72
8
 73
4
 74
0
 40
0
 40
0
 40
0
 40
0
 40
1
 40
1
 40
1
 40
1
 10
75.813685
 20
30.837927
 30
0.0
 10
76.964307
 20
31.502240
 30
0.0
 10
78.381934
 20
31.502240
 30
0.0
 10
79.532557
 20
30.837927
 30
0.0
  0
SPLINE
  5
121
100
AcDbEntity
  8
Layer_1
 62
7
100
AcDbSpline
 70
8
 71
3
 72
8
 73
4
 74
0
 40
0
 40
0
 40
0
 40
0
 40
1
 40
1
 40
1
 40
1
 10
79.532557
 20
30.837927
 30
0.0
 10
80.683179
 20
30.173616
 30
0.0
 10
81.391993
 20
28.945915
 30
0.0
 10
81.391993
 20
27.617291
 30
0.0
  0
LWPOLYLINE
  5
122
100
AcDbEntity
  8
Layer_1
 62
7
100
AcDbPolyline
 90
210
 70
1
 10
51.558877
 20
55.476149
 30
0.0
 10
53.088576
 20
55.571449
 30
0.0
 10
53.467766
 20
55.550441
 30
0.0
 10
55.405307
 20
55.021880
 30
0.0
 10
55.405307
 20
53.080820
 30
0.0
 10
53.467766
 20
52.552260
 30
0.0
 10
53.088576
 20
52.531252
 30
0.0
 10
51.558877
 20
52.626552
 30
0.0
 10
51.235178
 20
49.960674
 30
0.0
 10
52.743226
 20
49.687103
 30
0.0
 10
53.106377
 20
49.575962
 30
0.0
 10
54.861126
 20
48.599083
 30
0.0
 10
54.396597
 20
46.714414
 30
0.0
 10
52.388867
 20
46.664913
 30
0.0
 10
52.015667
 20
46.735213
 30
0.0
 10
50.553217
 20
47.193812
 30
0.0
 10
49.600947
 20
44.682863
 30
0.0
 10
50.999706
 20
44.056343
 30
0.0
 10
51.325707
 20
43.861523
 30
0.0
 10
52.795677
 20
42.493092
 30
0.0
 10
51.893617
 20
40.774362
 30
0.0
 10
49.932377
 20
41.206773
 30
0.0
 10
49.586855
 20
41.364393
 30
0.0
 10
48.276657
 20
42.159643
 30
0.0
 10
46.751136
 20
39.949552
 30
0.0
 10
47.959326
 20
39.006503
 30
0.0
 10
48.229225
 20
38.739324
 30
0.0
 10
49.328998
 20
37.058873
 30
0.0
 10
48.041826
 20
35.605954
 30
0.0
 10
46.241067
 20
36.495152
 30
0.0
 10
45.943297
 20
36.730883
 30
0.0
 10
44.861487
 20
37.816582
 30
0.0
 10
42.851397
 20
36.035793
 30
0.0
 10
43.798777
 20
34.831002
 30
0.0
 10
43.996897
 20
34.506994
 30
0.0
 10
44.662557
 20
32.612183
 30
0.0
 10
43.065085
 20
31.509534
 30
0.0
 10
41.529446
 20
32.803842
 30
0.0
 10
41.296748
 20
33.103972
 30
0.0
 10
40.506196
 20
34.417022
 30
0.0
 10
38.128346
 20
33.169022
 30
0.0
 10
38.759878
 20
31.772522
 30
0.0
 10
38.874696
 20
31.410501
 30
0.0
 10
39.067546
 20
29.411441
 30
0.0
 10
37.252615
 20
28.723154
 30
0.0
 10
36.071356
 20
30.347352
 30
0.0
 10
35.917247
 20
30.694433
 30
0.0
 10
35.463897
 20
32.158534
 30
0.0
 10
32.856476
 20
31.515858
 30
0.0
 10
33.135447
 20
30.008791
 30
0.0
 10
33.160292
 20
29.629829
 30
0.0
 10
32.869141
 20
27.642702
 30
0.0
 10
30.942221
 20
27.408731
 30
0.0
 10
30.183980
 20
29.268434
 30
0.0
 10
30.117411
 20
29.642343
 30
0.0
 10
30.027622
 20
31.172376
 30
0.0
 10
27.342162
 20
31.172376
 30
0.0
 10
27.252371
 20
29.642343
 30
0.0
 10
27.185801
 20
29.268434
 30
0.0
 10
26.427561
 20
27.408731
 30
0.0
 10
24.500640
 20
27.642702
 30
0.0
 10
24.209490
 20
29.629829
 30
0.0
 10
24.234335
 20
30.008791
 30
0.0
 10
24.513303
 20
31.515858
 30
0.0
 10
21.905883
 20
32.158534
 30
0.0
 10
21.452533
 20
30.694433
 30
0.0
 10
21.298423
 20
30.347352
 30
0.0
 10
20.117163
 20
28.723154
 30
0.0
 10
18.302233
 20
29.411441
 30
0.0
 10
18.495083
 20
31.410501
 30
0.0
 10
18.609903
 20
31.772522
 30
0.0
 10
19.241433
 20
33.169022
 30
0.0
 10
16.863583
 20
34.417022
 30
0.0
 10
16.073033
 20
33.103972
 30
0.0
 10
15.840333
 20
32.803842
 30
0.0
 10
14.304693
 20
31.509534
 30
0.0
 10
12.707223
 20
32.612183
 30
0.0
 10
13.372883
 20
34.506994
 30
0.0
 10
13.571003
 20
34.831002
 30
0.0
 10
14.518383
 20
36.035793
 30
0.0
 10
12.508293
 20
37.816582
 30
0.0
 10
11.426483
 20
36.730883
 30
0.0
 10
11.128713
 20
36.495152
 30
0.0
 10
9.327953
 20
35.605954
 30
0.0
 10
8.040783
 20
37.058873
 30
0.0
 10
9.140553
 20
38.739324
 30
0.0
 10
9.410453
 20
39.006503
 30
0.0
 10
10.618643
 20
39.949552
 30
0.0
 10
9.093123
 20
42.159643
 30
0.0
 10
7.782923
 20
41.364393
 30
0.0
 10
7.437403
 20
41.206773
 30
0.0
 10
5.476163
 20
40.774362
 30
0.0
 10
4.574103
 20
42.493092
 30
0.0
 10
6.044073
 20
43.861523
 30
0.0
 10
6.370073
 20
44.056343
 30
0.0
 10
7.768833
 20
44.682863
 30
0.0
 10
6.816563
 20
47.193812
 30
0.0
 10
5.354113
 20
46.735213
 30
0.0
 10
4.980913
 20
46.664913
 30
0.0
 10
2.973183
 20
46.714414
 30
0.0
 10
2.508653
 20
48.599083
 30
0.0
 10
4.263403
 20
49.575962
 30
0.0
 10
4.626553
 20
49.687103
 30
0.0
 10
6.134603
 20
49.960674
 30
0.0
 10
5.810903
 20
52.626552
 30
0.0
 10
4.281203
 20
52.531252
 30
0.0
 10
3.902013
 20
52.552260
 30
0.0
 10
1.964473
 20
53.080820
 30
0.0
 10
1.964473
 20
55.021880
 30
0.0
 10
3.902013
 20
55.550441
 30
0.0
 10
4.281203
 20
55.571449
 30
0.0
 10
5.810903
 20
55.476149
 30
0.0
 10
6.134603
 20
58.142030
 30
0.0
 10
4.626553
 20
58.415598
 30
0.0
 10
4.263403
 20
58.526739
 30
0.0
 10
2.508653
 20
59.503618
 30
0.0
 10
2.973183
 20
61.388290
 30
0.0
 10
4.980913
 20
61.437788
 30
0.0
 10
5.354113
 20
61.367488
 30
0.0
 10
6.816563
 20
60.908889
 30
0.0
 10
7.768833
 20
63.419838
 30
0.0
 10
6.370073
 20
64.046358
 30
0.0
 10
6.044073
 20
64.241178
 30
0.0
 10
4.574103
 20
65.609609
 30
0.0
 10
5.476163
 20
67.328339
 30
0.0
 10
7.437403
 20
66.895928
 30
0.0
 10
7.782923
 20
66.738308
 30
0.0
 10
9.093123
 20
65.943058
 30
0.0
 10
10.618643
 20
68.153149
 30
0.0
 10
9.410453
 20
69.096198
 30
0.0
 10
9.140553
 20
69.363379
 30
0.0
 10
8.040783
 20
71.043830
 30
0.0
 10
9.327953
 20
72.496750
 30
0.0
 10
11.128713
 20
71.607549
 30
0.0
 10
11.426483
 20
71.371818
 30
0.0
 10
12.508293
 20
70.286119
 30
0.0
 10
14.518383
 20
72.066908
 30
0.0
 10
13.571003
 20
73.271698
 30
0.0
 10
13.372883
 20
73.595710
 30
0.0
 10
12.707223
 20
75.490518
 30
0.0
 10
14.304693
 20
76.593169
 30
0.0
 10
15.840333
 20
75.298859
 30
0.0
 10
16.073033
 20
74.998729
 30
0.0
 10
16.863583
 20
73.685679
 30
0.0
 10
19.241433
 20
74.933679
 30
0.0
 10
18.609903
 20
76.330179
 30
0.0
 10
18.495083
 20
76.692189
 30
0.0
 10
18.302233
 20
78.691238
 30
0.0
 10
20.117163
 20
79.379549
 30
0.0
 10
21.298423
 20
77.755349
 30
0.0
 10
21.452533
 20
77.408250
 30
0.0
 10
21.905883
 20
75.944167
 30
0.0
 10
24.513303
 20
76.586838
 30
0.0
 10
24.234335
 20
78.093899
 30
0.0
 10
24.209490
 20
78.472859
 30
0.0
 10
24.500640
 20
80.459978
 30
0.0
 10
26.427561
 20
80.693949
 30
0.0
 10
27.185801
 20
78.834248
 30
0.0
 10
27.252371
 20
78.460358
 30
0.0
 10
27.342162
 20
76.930320
 30
0.0
 10
30.027622
 20
76.930320
 30
0.0
 10
30.117411
 20
78.460358
 30
0.0
 10
30.183980
 20
78.834248
 30
0.0
 10
30.942221
 20
80.693949
 30
0.0
 10
32.869141
 20
80.459978
 30
0.0
 10
33.160292
 20
78.472859
 30
0.0
 10
33.135447
 20
78.093899
 30
0.0
 10
32.856476
 20
76.586838
 30
0.0
 10
35.463897
 20
75.944167
 30
0.0
 10
35.917247
 20
77.408250
 30
0.0
 10
36.071356
 20
77.755349
 30
0.0
 10
37.252615
 20
79.379549
 30
0.0
 10
39.067546
 20
78.691238
 30
0.0
 10
38.874696
 20
76.692189
 30
0.0
 10
38.759878
 20
76.330179
 30
0.0
 10
38.128346
 20
74.933679
 30
0.0
 10
40.506196
 20
73.685679
 30
0.0
 10
41.296748
 20
74.998729
 30
0.0
 10
41.529446
 20
75.298859
 30
0.0
 10
43.065085
 20
76.593169
 30
0.0
 10
44.662557
 20
75.490518
 30
0.0
 10
43.996897
 20
73.595710
 30
0.0
 10
43.798777
 20
73.271698
 30
0.0
 10
42.851397
 20
72.066908
 30
0.0
 10
44.861487
 20
70.286119
 30
0.0
 10
45.943297
 20
71.371818
 30
0.0
 10
46.241067
 20
71.607549
 30
0.0
 10
48.041826
 20
72.496750
 30
0.0
 10
49.328998
 20
71.043830
 30
0.0
 10
48.229225
 20
69.363379
 30
0.0
 10
47.959326
 20
69.096198
 30
0.0
 10
46.751136
 20
68.153149
 30
0.0
 10
48.276657
 20
65.943058
 30
0.0
 10
49.586855
 20
66.738308
 30
0.0
 10
49.932377
 20
66.895928
 30
0.0
 10
51.893617
 20
67.328339
 30
0.0
 10
52.795677
 20
65.609609
 30
0.0
 10
51.325707
 20
64.241178
 30
0.0
 10
50.999706
 20
64.046358
 30
0.0
 10
49.600947
 20
63.419838
 30
0.0
 10
50.553217
 20
60.908889
 30
0.0
 10
52.015667
 20
61.367488
 30
0.0
 10
52.388867
 20
61.437788
 30
0.0
 10
54.396597
 20
61.388290
 30
0.0
 10
54.861126
 20
59.503618
 30
0.0
 10
53.106377
 20
58.526739
 30
0.0
 10
52.743226
 20
58.415598
 30
0.0
 10
51.235178
 20
58.142030
 30
0.0
 10
51.558877
 20
55.476149
 30
0.0
 10
51.558877
 20
55.476149
 30
0.0
  0
SPLINE
  5
123
100
AcDbEntity
  8
Layer_1
 62
7
100
AcDbSpline
 70
8
 71
3
 72
8
 73
4
 74
0
 40
0
 40
0
 40
0
 40
0
 40
1
 40
1
 40
1
 40
1
 10
105.056077
 20
155.683287
 30
0.0
 10
105.056077
 20
155.058071
 30
0.0
 10
104.722530
 20
154.480350
 30
0.0
 10
104.181079
 20
154.167743
 30
0.0
  0
SPLINE
  5
124
100
AcDbEntity
  8
Layer_1
 62
7
100
AcDbSpline
 70
8
 71
3
 72
8
 73
4
 74
0
 40
0
 40
0
 40
0
 40
0
 40
1
 40
1
 40
1
 40
1
 10
104.181079
 20
154.167743
 30
0.0
 10
103.639625
 20
153.855135
 30
0.0
 10
102.972531
 20
153.855135
 30
0.0
 10
102.431077
 20
154.167743
 30
0.0
  0
SPLINE
  5
125
100
AcDbEntity
  8
Layer_1
 62
7
100
AcDbSpline
 70
8
 71
3
 72
8
 73
4
 74
0
 40
0
 40
0
 40
0
 40
0
 40
1
 40
1
 40
1
 40
1
 10
102.431077
 20
154.167743
 30
0.0
 10
101.889626
 20
154.480350
 30
0.0
 10
101.556079
 20
155.058071
 30
0.0
 10
101.556079
 20
155.683287
 30
0.0
  0
SPLINE
  5
126
100
AcDbEntity
  8
Layer_1
 62
7
100
AcDbSpline
 70
8
 71
3
 72
8
 73
4
 74
0
 40
0
 40
0
 40
0
 40
0
 40
1
 40
1
 40
1
 40
1
 10
101.556079
 20
155.683287
 30
0.0
 10
101.556079
 20
156.308502
 30
0.0
 10
101.889626
 20
156.886225
 30
0.0
 10
102.431077
 20
157.198830
 30
0.0
  0
SPLINE
  5
127
100
AcDbEntity
  8
Layer_1
 62
7
100
AcDbSpline
 70
8
 71
3
 72
8
 73
4
 74
0
 40
0
 40
0
 40
0
 40
0
 40
1
 40
1
 40
1
 40
1
 10
102.431077
 20
157.198830
 30
0.0
 10
102.972531
 20
157.511438
 30
0.0
 10
103.639625
 20
157.511438
 30
0.0
 10
104.181079
 20
157.198830
 30
0.0
  0
SPLINE
  5
128
100
AcDbEntity
  8
Layer_1
 62
7
100
AcDbSpline
 70
8
 71
3
 72
8
 73
4
 74
0
 40
0
 40
0
 40
0
 40
0
 40
1
 40
1
 40
1
 40
1
 10
104.181079
 20
157.198830
 30
0.0
 10
104.722530
 20
156.886225
 30
0.0
 10
105.056077
 20
156.308502
 30
0.0
 10
105.056077
 20
155.683287
 30
0.0
  0
LWPOLYLINE
  5
129
100
AcDbEntity
  8
Layer_1
 62
7
100
AcDbPolyline
 90
210
 70
1
 10
157.982121
 20
29.300674
 30
0.0
 10
159.511823
 20
29.395974
 30
0.0
 10
159.891013
 20
29.374966
 30
0.0
 10
161.828551
 20
28.846406
 30
0.0
 10
161.828551
 20
26.905346
 30
0.0
 10
159.891013
 20
26.376785
 30
0.0
 10
159.511823
 20
26.355777
 30
0.0
 10
157.982121
 20
26.451077
 30
0.0
 10
157.658422
 20
23.785199
 30
0.0
 10
159.166473
 20
23.511628
 30
0.0
 10
159.529621
 20
23.400487
 30
0.0
 10
161.284372
 20
22.423608
 30
0.0
 10
160.819843
 20
20.538939
 30
0.0
 10
158.812111
 20
20.489438
 30
0.0
 10
158.438911
 20
20.559738
 30
0.0
 10
156.976461
 20
21.018337
 30
0.0
 10
156.024191
 20
18.507389
 30
0.0
 10
157.422951
 20
17.880868
 30
0.0
 10
157.748952
 20
17.686048
 30
0.0
 10
159.218921
 20
16.317618
 30
0.0
 10
158.316861
 20
14.598887
 30
0.0
 10
156.355621
 20
15.031298
 30
0.0
 10
156.010102
 20
15.188918
 30
0.0
 10
154.699901
 20
15.984168
 30
0.0
 10
153.174382
 20
13.774077
 30
0.0
 10
154.382573
 20
12.831028
 30
0.0
 10
154.652472
 20
12.563847
 30
0.0
 10
155.752242
 20
10.883399
 30
0.0
 10
154.465073
 20
9.430479
 30
0.0
 10
152.664311
 20
10.319677
 30
0.0
 10
152.366541
 20
10.555408
 30
0.0
 10
151.284731
 20
11.641107
 30
0.0
 10
149.274641
 20
9.860318
 30
0.0
 10
150.222021
 20
8.655528
 30
0.0
 10
150.420141
 20
8.331519
 30
0.0
 10
151.085801
 20
6.436708
 30
0.0
 10
149.488332
 20
5.334057
 30
0.0
 10
147.952693
 20
6.628367
 30
0.0
 10
147.719992
 20
6.928497
 30
0.0
 10
146.929443
 20
8.241547
 30
0.0
 10
144.551590
 20
6.993547
 30
0.0
 10
145.183122
 20
5.597047
 30
0.0
 10
145.297943
 20
5.235037
 30
0.0
 10
145.490793
 20
3.235988
 30
0.0
 10
143.675862
 20
2.547677
 30
0.0
 10
142.494601
 20
4.171877
 30
0.0
 10
142.340491
 20
4.518979
 30
0.0
 10
141.887141
 20
5.983059
 30
0.0
 10
139.279723
 20
5.340388
 30
0.0
 10
139.558691
 20
3.833327
 30
0.0
 10
139.583589
 20
3.454367
 30
0.0
 10
139.292438
 20
1.467248
 30
0.0
 10
137.365520
 20
1.233277
 30
0.0
 10
136.607280
 20
3.092978
 30
0.0
 10
136.540679
 20
3.466869
 30
0.0
 10
136.450880
 20
4.996909
 30
0.0
 10
133.765420
 20
4.996909
 30
0.0
 10
133.675620
 20
3.466869
 30
0.0
 10
133.609019
 20
3.092978
 30
0.0
 10
132.850779
 20
1.233277
 30
0.0
 10
130.923858
 20
1.467248
 30
0.0
 10
130.632708
 20
3.454367
 30
0.0
 10
130.657605
 20
3.833327
 30
0.0
 10
130.936577
 20
5.340388
 30
0.0
 10
128.329156
 20
5.983059
 30
0.0
 10
127.875805
 20
4.518979
 30
0.0
 10
127.721696
 20
4.171877
 30
0.0
 10
126.540437
 20
2.547677
 30
0.0
 10
124.725507
 20
3.235988
 30
0.0
 10
124.918356
 20
5.235037
 30
0.0
 10
125.033177
 20
5.597047
 30
0.0
 10
125.664706
 20
6.993547
 30
0.0
 10
123.286856
 20
8.241547
 30
0.0
 10
122.496307
 20
6.928497
 30
0.0
 10
122.263606
 20
6.628367
 30
0.0
 10
120.727967
 20
5.334057
 30
0.0
 10
119.130498
 20
6.436708
 30
0.0
 10
119.796155
 20
8.331519
 30
0.0
 10
119.994278
 20
8.655528
 30
0.0
 10
120.941656
 20
9.860318
 30
0.0
 10
118.931566
 20
11.641107
 30
0.0
 10
117.849756
 20
10.555408
 30
0.0
 10
117.551986
 20
10.319677
 30
0.0
 10
115.751226
 20
9.430479
 30
0.0
 10
114.464058
 20
10.883399
 30
0.0
 10
115.563827
 20
12.563847
 30
0.0
 10
115.833726
 20
12.831028
 30
0.0
 10
117.041917
 20
13.774077
 30
0.0
 10
115.516398
 20
15.984168
 30
0.0
 10
114.206197
 20
15.188918
 30
0.0
 10
113.860678
 20
15.031298
 30
0.0
 10
111.899435
 20
14.598887
 30
0.0
 10
110.997376
 20
16.317618
 30
0.0
 10
112.467348
 20
17.686048
 30
0.0
 10
112.793346
 20
17.880868
 30
0.0
 10
114.192106
 20
18.507389
 30
0.0
 10
113.239836
 20
21.018337
 30
0.0
 10
111.777386
 20
20.559738
 30
0.0
 10
111.404186
 20
20.489438
 30
0.0
 10
109.396456
 20
20.538939
 30
0.0
 10
108.931927
 20
22.423608
 30
0.0
 10
110.686675
 20
23.400487
 30
0.0
 10
111.049827
 20
23.511628
 30
0.0
 10
112.557877
 20
23.785199
 30
0.0
 10
112.234176
 20
26.451077
 30
0.0
 10
110.704477
 20
26.355777
 30
0.0
 10
110.325286
 20
26.376785
 30
0.0
 10
108.387745
 20
26.905346
 30
0.0
 10
108.387745
 20
28.846406
 30
0.0
 10
110.325286
 20
29.374966
 30
0.0
 10
110.704477
 20
29.395974
 30
0.0
 10
112.234176
 20
29.300674
 30
0.0
 10
112.557877
 20
31.966552
 30
0.0
 10
111.049827
 20
32.240123
 30
0.0
 10
110.686675
 20
32.351264
 30
0.0
 10
108.931927
 20
33.328144
 30
0.0
 10
109.396456
 20
35.212813
 30
0.0
 10
111.404186
 20
35.262314
 30
0.0
 10
111.777386
 20
35.192014
 30
0.0
 10
113.239836
 20
34.733414
 30
0.0
 10
114.192106
 20
37.244364
 30
0.0
 10
112.793346
 20
37.870884
 30
0.0
 10
112.467348
 20
38.065704
 30
0.0
 10
110.997376
 20
39.434134
 30
0.0
 10
111.899435
 20
41.152864
 30
0.0
 10
113.860678
 20
40.720453
 30
0.0
 10
114.206197
 20
40.562833
 30
0.0
 10
115.516398
 20
39.767584
 30
0.0
 10
117.041917
 20
41.977674
 30
0.0
 10
115.833726
 20
42.920724
 30
0.0
 10
115.563827
 20
43.187904
 30
0.0
 10
114.464058
 20
44.868354
 30
0.0
 10
115.751226
 20
46.321274
 30
0.0
 10
117.551986
 20
45.432074
 30
0.0
 10
117.849756
 20
45.196344
 30
0.0
 10
118.931566
 20
44.110644
 30
0.0
 10
120.941656
 20
45.891434
 30
0.0
 10
119.994278
 20
47.096224
 30
0.0
 10
119.796155
 20
47.420234
 30
0.0
 10
119.130498
 20
49.315044
 30
0.0
 10
120.727967
 20
50.417693
 30
0.0
 10
122.263606
 20
49.123384
 30
0.0
 10
122.496307
 20
48.823253
 30
0.0
 10
123.286856
 20
47.510204
 30
0.0
 10
125.664706
 20
48.758204
 30
0.0
 10
125.033177
 20
50.154703
 30
0.0
 10
124.918356
 20
50.516714
 30
0.0
 10
124.725507
 20
52.515764
 30
0.0
 10
126.540437
 20
53.204073
 30
0.0
 10
127.721696
 20
51.579874
 30
0.0
 10
127.875805
 20
51.232774
 30
0.0
 10
128.329156
 20
49.768694
 30
0.0
 10
130.936577
 20
50.411364
 30
0.0
 10
130.657605
 20
51.918424
 30
0.0
 10
130.632708
 20
52.297383
 30
0.0
 10
130.923858
 20
54.284504
 30
0.0
 10
132.850779
 20
54.518473
 30
0.0
 10
133.609019
 20
52.658774
 30
0.0
 10
133.675620
 20
52.284883
 30
0.0
 10
133.765420
 20
50.754844
 30
0.0
 10
136.450880
 20
50.754844
 30
0.0
 10
136.540679
 20
52.284883
 30
0.0
 10
136.607280
 20
52.658774
 30
0.0
 10
137.365520
 20
54.518473
 30
0.0
 10
139.292438
 20
54.284504
 30
0.0
 10
139.583589
 20
52.297383
 30
0.0
 10
139.558691
 20
51.918424
 30
0.0
 10
139.279723
 20
50.411364
 30
0.0
 10
141.887141
 20
49.768694
 30
0.0
 10
142.340491
 20
51.232774
 30
0.0
 10
142.494601
 20
51.579874
 30
0.0
 10
143.675862
 20
53.204073
 30
0.0
 10
145.490793
 20
52.515764
 30
0.0
 10
145.297943
 20
50.516714
 30
0.0
 10
145.183122
 20
50.154703
 30
0.0
 10
144.551590
 20
48.758204
 30
0.0
 10
146.929443
 20
47.510204
 30
0.0
 10
147.719992
 20
48.823253
 30
0.0
 10
147.952693
 20
49.123384
 30
0.0
 10
149.488332
 20
50.417693
 30
0.0
 10
151.085801
 20
49.315044
 30
0.0
 10
150.420141
 20
47.420234
 30
0.0
 10
150.222021
 20
47.096224
 30
0.0
 10
149.274641
 20
45.891434
 30
0.0
 10
151.284731
 20
44.110644
 30
0.0
 10
152.366541
 20
45.196344
 30
0.0
 10
152.664311
 20
45.432074
 30
0.0
 10
154.465073
 20
46.321274
 30
0.0
 10
155.752242
 20
44.868354
 30
0.0
 10
154.652472
 20
43.187904
 30
0.0
 10
154.382573
 20
42.920724
 30
0.0
 10
153.174382
 20
41.977674
 30
0.0
 10
154.699901
 20
39.767584
 30
0.0
 10
156.010102
 20
40.562833
 30
0.0
 10
156.355621
 20
40.720453
 30
0.0
 10
158.316861
 20
41.152864
 30
0.0
 10
159.218921
 20
39.434134
 30
0.0
 10
157.748952
 20
38.065704
 30
0.0
 10
157.422951
 20
37.870884
 30
0.0
 10
156.024191
 20
37.244364
 30
0.0
 10
156.976461
 20
34.733414
 30
0.0
 10
158.438911
 20
35.192014
 30
0.0
 10
158.812111
 20
35.262314
 30
0.0
 10
160.819843
 20
35.212813
 30
0.0
 10
161.284372
 20
33.328144
 30
0.0
 10
159.529621
 20
32.351264
 30
0.0
 10
159.166473
 20
32.240123
 30
0.0
 10
157.658422
 20
31.966552
 30
0.0
 10
157.982121
 20
29.300674
 30
0.0
 10
157.982121
 20
29.300674
 30
0.0
  0
SPLINE
  5
12a
100
AcDbEntity
  8
Layer_1
 62
7
100
AcDbSpline
 70
8
 71
3
 72
8
 73
4
 74
0
 40
0
 40
0
 40
0
 40
0
 40
1
 40
1
 40
1
 40
1
 10
182.792859
 20
56.869292
 30
0.0
 10
182.792859
 20
56.244076
 30
0.0
 10
182.459312
 20
55.666356
 30
0.0
 10
181.917859
 20
55.353748
 30
0.0
  0
SPLINE
  5
12b
100
AcDbEntity
  8
Layer_1
 62
7
100
AcDbSpline
 70
8
 71
3
 72
8
 73
4
 74
0
 40
0
 40
0
 40
0
 40
0
 40
1
 40
1
 40
1
 40
1
 10
181.917859
 20
55.353748
 30
0.0
 10
181.376407
 20
55.041140
 30
0.0
 10
180.709311
 20
55.041140
 30
0.0
 10
180.167859
 20
55.353748
 30
0.0
  0
SPLINE
  5
12c
100
AcDbEntity
  8
Layer_1
 62
7
100
AcDbSpline
 70
8
 71
3
 72
8
 73
4
 74
0
 40
0
 40
0
 40
0
 40
0
 40
1
 40
1
 40
1
 40
1
 10
180.167859
 20
55.353748
 30
0.0
 10
179.626408
 20
55.666356
 30
0.0
 10
179.292861
 20
56.244076
 30
0.0
 10
179.292861
 20
56.869292
 30
0.0
  0
SPLINE
  5
12d
100
AcDbEntity
  8
Layer_1
 62
7
100
AcDbSpline
 70
8
 71
3
 72
8
 73
4
 74
0
 40
0
 40
0
 40
0
 40
0
 40
1
 40
1
 40
1
 40
1
 10
179.292861
 20
56.869292
 30
0.0
 10
179.292861
 20
57.494507
 30
0.0
 10
179.626408
 20
58.072228
 30
0.0
 10
180.167859
 20
58.384836
 30
0.0
  0
SPLINE
  5
12e
100
AcDbEntity
  8
Layer_1
 62
7
100
AcDbSpline
 70
8
 71
3
 72
8
 73
4
 74
0
 40
0
 40
0
 40
0
 40
0
 40
1
 40
1
 40
1
 40
1
 10
180.167859
 20
58.384836
 30
0.0
 10
180.709311
 20
58.697443
 30
0.0
 10
181.376407
 20
58.697443
 30
0.0
 10
181.917859
 20
58.384836
 30
0.0
  0
SPLINE
  5
12f
100
AcDbEntity
  8
Layer_1
 62
7
100
AcDbSpline
 70
8
 71
3
 72
8
 73
4
 74
0
 40
0
 40
0
 40
0
 40
0
 40
1
 40
1
 40
1
 40
1
 10
181.917859
 20
58.384836
 30
0.0
 10
182.459312
 20
58.072228
 30
0.0
 10
182.792859
 20
57.494507
 30
0.0
 10
182.792859
 20
56.869292
 30
0.0
  0
SPLINE
  5
130
100
AcDbEntity
  8
Layer_1
 62
7
100
AcDbSpline
 70
8
 71
3
 72
8
 73
4
 74
0
 40
0
 40
0
 40
0
 40
0
 40
1
 40
1
 40
1
 40
1
 10
184.761730
 20
56.869308
 30
0.0
 10
184.761730
 20
55.540681
 30
0.0
 10
184.052919
 20
54.312983
 30
0.0
 10
182.902296
 20
53.648670
 30
0.0
  0
SPLINE
  5
131
100
AcDbEntity
  8
Layer_1
 62
7
100
AcDbSpline
 70
8
 71
3
 72
8
 73
4
 74
0
 40
0
 40
0
 40
0
 40
0
 40
1
 40
1
 40
1
 40
1
 10
182.902296
 20
53.648670
 30
0.0
 10
181.751674
 20
52.984356
 30
0.0
 10
180.334047
 20
52.984356
 30
0.0
 10
179.183424
 20
53.648670
 30
0.0
  0
SPLINE
  5
132
100
AcDbEntity
  8
Layer_1
 62
7
100
AcDbSpline
 70
8
 71
3
 72
8
 73
4
 74
0
 40
0
 40
0
 40
0
 40
0
 40
1
 40
1
 40
1
 40
1
 10
179.183424
 20
53.648670
 30
0.0
 10
178.032802
 20
54.312983
 30
0.0
 10
177.323988
 20
55.540681
 30
0.0
 10
177.323988
 20
56.869308
 30
0.0
  0
SPLINE
  5
133
100
AcDbEntity
  8
Layer_1
 62
7
100
AcDbSpline
 70
8
 71
3
 72
8
 73
4
 74
0
 40
0
 40
0
 40
0
 40
0
 40
1
 40
1
 40
1
 40
1
 10
177.323988
 20
56.869308
 30
0.0
 10
177.323988
 20
58.197931
 30
0.0
 10
178.032802
 20
59.425632
 30
0.0
 10
179.183424
 20
60.089943
 30
0.0
  0
SPLINE
  5
134
100
AcDbEntity
  8
Layer_1
 62
7
100
AcDbSpline
 70
8
 71
3
 72
8
 73
4
 74
0
 40
0
 40
0
 40
0
 40
0
 40
1
 40
1
 40
1
 40
1
 10
179.183424
 20
60.089943
 30
0.0
 10
180.334047
 20
60.754256
 30
0.0
 10
181.751674
 20
60.754256
 30
0.0
 10
182.902296
 20
60.089943
 30
0.0
  0
SPLINE
  5
135
100
AcDbEntity
  8
Layer_1
 62
7
100
AcDbSpline
 70
8
 71
3
 72
8
 73
4
 74
0
 40
0
 40
0
 40
0
 40
0
 40
1
 40
1
 40
1
 40
1
 10
182.902296
 20
60.089943
 30
0.0
 10
184.052919
 20
59.425632
 30
0.0
 10
184.761730
 20
58.197931
 30
0.0
 10
184.761730
 20
56.869308
 30
0.0
  0
LWPOLYLINE
  5
136
100
AcDbEntity
  8
Layer_1
 62
7
100
AcDbPolyline
 90
210
 70
1
 10
100.547101
 20
29.042081
 30
0.0
 10
102.076803
 20
29.137381
 30
0.0
 10
102.455993
 20
29.116373
 30
0.0
 10
104.393532
 20
28.587812
 30
0.0
 10
104.393532
 20
26.646755
 30
0.0
 10
102.455993
 20
26.118194
 30
0.0
 10
102.076803
 20
26.097186
 30
0.0
 10
100.547101
 20
26.192486
 30
0.0
 10
100.223402
 20
23.526606
 30
0.0
 10
101.731453
 20
23.253034
 30
0.0
 10
102.094601
 20
23.141896
 30
0.0
 10
103.849353
 20
22.165015
 30
0.0
 10
103.384821
 20
20.280345
 30
0.0
 10
101.377091
 20
20.230847
 30
0.0
 10
101.003891
 20
20.301147
 30
0.0
 10
99.541441
 20
20.759747
 30
0.0
 10
98.589171
 20
18.248795
 30
0.0
 10
99.987931
 20
17.622275
 30
0.0
 10
100.313932
 20
17.427457
 30
0.0
 10
101.783901
 20
16.059027
 30
0.0
 10
100.881841
 20
14.340296
 30
0.0
 10
98.920602
 20
14.772705
 30
0.0
 10
98.575082
 20
14.930317
 30
0.0
 10
97.264881
 20
15.725575
 30
0.0
 10
95.739363
 20
13.515484
 30
0.0
 10
96.947551
 20
12.572430
 30
0.0
 10
97.217452
 20
12.305253
 30
0.0
 10
98.317222
 20
10.624805
 30
0.0
 10
97.030053
 20
9.171872
 30
0.0
 10
95.229291
 20
10.061084
 30
0.0
 10
94.931521
 20
10.296801
 30
0.0
 10
93.849711
 20
11.382492
 30
0.0
 10
91.839621
 20
9.601714
 30
0.0
 10
92.787002
 20
8.396934
 30
0.0
 10
92.985122
 20
8.072925
 30
0.0
 10
93.650782
 20
6.178112
 30
0.0
 10
92.053312
 20
5.075461
 30
0.0
 10
90.517673
 20
6.369776
 30
0.0
 10
90.284972
 20
6.669893
 30
0.0
 10
89.494421
 20
7.982941
 30
0.0
 10
87.116571
 20
6.734954
 30
0.0
 10
87.748102
 20
5.338457
 30
0.0
 10
87.862921
 20
4.976427
 30
0.0
 10
88.055773
 20
2.977394
 30
0.0
 10
86.240842
 20
2.289081
 30
0.0
 10
85.059581
 20
3.913279
 30
0.0
 10
84.905472
 20
4.260385
 30
0.0
 10
84.452121
 20
5.724457
 30
0.0
 10
81.844703
 20
5.081784
 30
0.0
 10
82.123672
 20
3.574718
 30
0.0
 10
82.148516
 20
3.195755
 30
0.0
 10
81.857366
 20
1.208655
 30
0.0
 10
79.930448
 20
0.974684
 30
0.0
 10
79.172207
 20
2.834387
 30
0.0
 10
79.105636
 20
3.208270
 30
0.0
 10
79.015847
 20
4.738302
 30
0.0
 10
76.330387
 20
4.738302
 30
0.0
 10
76.240598
 20
3.208270
 30
0.0
 10
76.174026
 20
2.834387
 30
0.0
 10
75.415786
 20
0.974684
 30
0.0
 10
73.488867
 20
1.208655
 30
0.0
 10
73.197717
 20
3.195755
 30
0.0
 10
73.222562
 20
3.574718
 30
0.0
 10
73.501530
 20
5.081784
 30
0.0
 10
70.894112
 20
5.724457
 30
0.0
 10
70.440762
 20
4.260385
 30
0.0
 10
70.286652
 20
3.913279
 30
0.0
 10
69.105391
 20
2.289081
 30
0.0
 10
67.290461
 20
2.977394
 30
0.0
 10
67.483310
 20
4.976427
 30
0.0
 10
67.598131
 20
5.338457
 30
0.0
 10
68.229663
 20
6.734954
 30
0.0
 10
65.851812
 20
7.982941
 30
0.0
 10
65.061261
 20
6.669893
 30
0.0
 10
64.828560
 20
6.369776
 30
0.0
 10
63.292921
 20
5.075461
 30
0.0
 10
61.695452
 20
6.178112
 30
0.0
 10
62.361112
 20
8.072925
 30
0.0
 10
62.559232
 20
8.396934
 30
0.0
 10
63.506612
 20
9.601714
 30
0.0
 10
61.496522
 20
11.382492
 30
0.0
 10
60.414712
 20
10.296801
 30
0.0
 10
60.116942
 20
10.061084
 30
0.0
 10
58.316183
 20
9.171872
 30
0.0
 10
57.029011
 20
10.624805
 30
0.0
 10
58.128781
 20
12.305253
 30
0.0
 10
58.398683
 20
12.572430
 30
0.0
 10
59.606871
 20
13.515484
 30
0.0
 10
58.081352
 20
15.725575
 30
0.0
 10
56.771151
 20
14.930317
 30
0.0
 10
56.425632
 20
14.772705
 30
0.0
 10
54.464392
 20
14.340296
 30
0.0
 10
53.562332
 20
16.059027
 30
0.0
 10
55.032301
 20
17.427457
 30
0.0
 10
55.358303
 20
17.622275
 30
0.0
 10
56.757062
 20
18.248795
 30
0.0
 10
55.804792
 20
20.759747
 30
0.0
 10
54.342342
 20
20.301147
 30
0.0
 10
53.969142
 20
20.230847
 30
0.0
 10
51.961412
 20
20.280345
 30
0.0
 10
51.496881
 20
22.165015
 30
0.0
 10
53.251632
 20
23.141896
 30
0.0
 10
53.614780
 20
23.253034
 30
0.0
 10
55.122831
 20
23.526606
 30
0.0
 10
54.799132
 20
26.192486
 30
0.0
 10
53.269430
 20
26.097186
 30
0.0
 10
52.890240
 20
26.118194
 30
0.0
 10
50.952702
 20
26.646755
 30
0.0
 10
50.952702
 20
28.587812
 30
0.0
 10
52.890240
 20
29.116373
 30
0.0
 10
53.269430
 20
29.137381
 30
0.0
 10
54.799132
 20
29.042081
 30
0.0
 10
55.122831
 20
31.707961
 30
0.0
 10
53.614780
 20
31.981533
 30
0.0
 10
53.251632
 20
32.092671
 30
0.0
 10
51.496881
 20
33.069552
 30
0.0
 10
51.961412
 20
34.954222
 30
0.0
 10
53.969142
 20
35.003723
 30
0.0
 10
54.342342
 20
34.933423
 30
0.0
 10
55.804792
 20
34.474820
 30
0.0
 10
56.757062
 20
36.985772
 30
0.0
 10
55.358303
 20
37.612292
 30
0.0
 10
55.032301
 20
37.807113
 30
0.0
 10
53.562332
 20
39.175540
 30
0.0
 10
54.464392
 20
40.894271
 30
0.0
 10
56.425632
 20
40.461862
 30
0.0
 10
56.771151
 20
40.304242
 30
0.0
 10
58.081352
 20
39.508992
 30
0.0
 10
59.606871
 20
41.719080
 30
0.0
 10
58.398683
 20
42.662132
 30
0.0
 10
58.128781
 20
42.929311
 30
0.0
 10
57.029011
 20
44.609762
 30
0.0
 10
58.316183
 20
46.062681
 30
0.0
 10
60.116942
 20
45.173480
 30
0.0
 10
60.414712
 20
44.937753
 30
0.0
 10
61.496522
 20
43.852051
 30
0.0
 10
63.506612
 20
45.632842
 30
0.0
 10
62.559232
 20
46.837633
 30
0.0
 10
62.361112
 20
47.161642
 30
0.0
 10
61.695452
 20
49.056452
 30
0.0
 10
63.292921
 20
50.159101
 30
0.0
 10
64.828560
 20
48.864791
 30
0.0
 10
65.061261
 20
48.564661
 30
0.0
 10
65.851812
 20
47.251610
 30
0.0
 10
68.229663
 20
48.499610
 30
0.0
 10
67.598131
 20
49.896113
 30
0.0
 10
67.483310
 20
50.258121
 30
0.0
 10
67.290461
 20
52.257173
 30
0.0
 10
69.105391
 20
52.945481
 30
0.0
 10
70.286652
 20
51.321281
 30
0.0
 10
70.440762
 20
50.974182
 30
0.0
 10
70.894112
 20
49.510102
 30
0.0
 10
73.501530
 20
50.152772
 30
0.0
 10
73.222562
 20
51.659831
 30
0.0
 10
73.197717
 20
52.038791
 30
0.0
 10
73.488867
 20
54.025912
 30
0.0
 10
75.415786
 20
54.259881
 30
0.0
 10
76.174026
 20
52.400183
 30
0.0
 10
76.240598
 20
52.026292
 30
0.0
 10
76.330387
 20
50.496251
 30
0.0
 10
79.015847
 20
50.496251
 30
0.0
 10
79.105636
 20
52.026292
 30
0.0
 10
79.172207
 20
52.400183
 30
0.0
 10
79.930448
 20
54.259881
 30
0.0
 10
81.857366
 20
54.025912
 30
0.0
 10
82.148516
 20
52.038791
 30
0.0
 10
82.123672
 20
51.659831
 30
0.0
 10
81.844703
 20
50.152772
 30
0.0
 10
84.452121
 20
49.510102
 30
0.0
 10
84.905472
 20
50.974182
 30
0.0
 10
85.059581
 20
51.321281
 30
0.0
 10
86.240842
 20
52.945481
 30
0.0
 10
88.055773
 20
52.257173
 30
0.0
 10
87.862921
 20
50.258121
 30
0.0
 10
87.748102
 20
49.896113
 30
0.0
 10
87.116571
 20
48.499610
 30
0.0
 10
89.494421
 20
47.251610
 30
0.0
 10
90.284972
 20
48.564661
 30
0.0
 10
90.517673
 20
48.864791
 30
0.0
 10
92.053312
 20
50.159101
 30
0.0
 10
93.650782
 20
49.056452
 30
0.0
 10
92.985122
 20
47.161642
 30
0.0
 10
92.787002
 20
46.837633
 30
0.0
 10
91.839621
 20
45.632842
 30
0.0
 10
93.849711
 20
43.852051
 30
0.0
 10
94.931521
 20
44.937753
 30
0.0
 10
95.229291
 20
45.173480
 30
0.0
 10
97.030053
 20
46.062681
 30
0.0
 10
98.317222
 20
44.609762
 30
0.0
 10
97.217452
 20
42.929311
 30
0.0
 10
96.947551
 20
42.662132
 30
0.0
 10
95.739363
 20
41.719080
 30
0.0
 10
97.264881
 20
39.508992
 30
0.0
 10
98.575082
 20
40.304242
 30
0.0
 10
98.920602
 20
40.461862
 30
0.0
 10
100.881841
 20
40.894271
 30
0.0
 10
101.783901
 20
39.175540
 30
0.0
 10
100.313932
 20
37.807113
 30
0.0
 10
99.987931
 20
37.612292
 30
0.0
 10
98.589171
 20
36.985772
 30
0.0
 10
99.541441
 20
34.474820
 30
0.0
 10
101.003891
 20
34.933423
 30
0.0
 10
101.377091
 20
35.003723
 30
0.0
 10
103.384821
 20
34.954222
 30
0.0
 10
103.849353
 20
33.069552
 30
0.0
 10
102.094602
 20
32.092671
 30
0.0
 10
101.731453
 20
31.981533
 30
0.0
 10
100.223402
 20
31.707961
 30
0.0
 10
100.547101
 20
29.042081
 30
0.0
 10
100.547101
 20
29.042081
 30
0.0
  0
LWPOLYLINE
  5
137
100
AcDbEntity
  8
Layer_1
 62
7
100
AcDbPolyline
 90
803
 70
1
 10
196.874847
 20
157.321097
 30
0.0
 10
197.333889
 20
157.329087
 30
0.0
 10
198.787269
 20
157.183186
 30
0.0
 10
200.702759
 20
156.777357
 30
0.0
 10
200.702759
 20
154.589137
 30
0.0
 10
198.787269
 20
154.183305
 30
0.0
 10
197.333889
 20
154.037406
 30
0.0
 10
196.874847
 20
154.045397
 30
0.0
 10
196.793048
 20
151.442555
 30
0.0
 10
197.251677
 20
151.421759
 30
0.0
 10
198.693029
 20
151.184888
 30
0.0
 10
200.579257
 20
150.659579
 30
0.0
 10
200.441859
 20
148.475679
 30
0.0
 10
198.504659
 20
148.190929
 30
0.0
 10
197.044987
 20
148.136529
 30
0.0
 10
196.587369
 20
148.173329
 30
0.0
 10
196.342299
 20
145.580759
 30
0.0
 10
196.798718
 20
145.531158
 30
0.0
 10
198.222349
 20
145.204249
 30
0.0
 10
200.071879
 20
144.561539
 30
0.0
 10
199.797617
 20
142.390578
 30
0.0
 10
197.846368
 20
142.228018
 30
0.0
 10
196.386159
 20
142.265419
 30
0.0
 10
195.931748
 20
142.330919
 30
0.0
 10
195.524379
 20
139.758849
 30
0.0
 10
195.976788
 20
139.680749
 30
0.0
 10
197.377079
 20
139.265089
 30
0.0
 10
199.182598
 20
138.507518
 30
0.0
 10
198.772568
 20
136.358059
 30
0.0
 10
196.814959
 20
136.318358
 30
0.0
 10
195.359988
 20
136.447369
 30
0.0
 10
194.910588
 20
136.541270
 30
0.0
 10
194.342517
 20
133.999860
 30
0.0
 10
194.789129
 20
133.893479
 30
0.0
 10
196.160559
 20
133.390720
 30
0.0
 10
197.914948
 20
132.521278
 30
0.0
 10
197.370758
 20
130.401809
 30
0.0
 10
195.414519
 20
130.485108
 30
0.0
 10
193.970518
 20
130.705228
 30
0.0
 10
193.527897
 20
130.827169
 30
0.0
 10
192.801367
 20
128.326439
 30
0.0
 10
193.240427
 20
128.192229
 30
0.0
 10
194.577578
 20
127.604349
 30
0.0
 10
196.273917
 20
126.626459
 30
0.0
 10
195.597719
 20
124.545339
 30
0.0
 10
193.650568
 20
124.751299
 30
0.0
 10
192.223239
 20
125.061650
 30
0.0
 10
191.789148
 20
125.211139
 30
0.0
 10
190.907027
 20
122.760960
 30
0.0
 10
191.336787
 20
122.599448
 30
0.0
 10
192.634388
 20
121.928769
 30
0.0
 10
194.265979
 20
120.846298
 30
0.0
 10
193.460439
 20
118.811739
 30
0.0
 10
191.530068
 20
119.139550
 30
0.0
 10
190.125038
 20
119.538920
 30
0.0
 10
189.701199
 20
119.715368
 30
0.0
 10
188.666969
 20
117.325418
 30
0.0
 10
189.085739
 20
117.137239
 30
0.0
 10
190.338668
 20
116.386399
 30
0.0
 10
191.899069
 20
115.203619
 30
0.0
 10
190.967368
 20
113.223660
 30
0.0
 10
189.061389
 20
113.672028
 30
0.0
 10
187.684209
 20
114.158829
 30
0.0
 10
187.272279
 20
114.361548
 30
0.0
 10
186.090028
 20
112.041250
 30
0.0
 10
186.496158
 20
111.827149
 30
0.0
 10
187.699467
 20
110.999120
 30
0.0
 10
189.182518
 20
109.720698
 30
0.0
 10
188.128339
 20
107.803149
 30
0.0
 10
186.254268
 20
108.370310
 30
0.0
 10
184.910378
 20
108.942619
 30
0.0
 10
184.511987
 20
109.170809
 30
0.0
 10
183.186377
 20
106.929320
 30
0.0
 10
183.578259
 20
106.690139
 30
0.0
 10
184.727207
 20
105.788188
 30
0.0
 10
186.127059
 20
104.419168
 30
0.0
 10
184.954548
 20
102.571588
 30
0.0
 10
183.119789
 20
103.255308
 30
0.0
 10
181.814489
 20
103.910879
 30
0.0
 10
181.431218
 20
104.163628
 30
0.0
 10
179.967477
 20
102.009798
 30
0.0
 10
180.343569
 20
101.746490
 30
0.0
 10
181.433608
 20
100.774170
 30
0.0
 10
182.744737
 20
99.319948
 30
0.0
 10
181.458539
 20
97.549648
 30
0.0
 10
179.670329
 20
98.347218
 30
0.0
 10
178.408759
 20
99.083448
 30
0.0
 10
178.042118
 20
99.359768
 30
0.0
 10
176.446029
 20
97.302098
 30
0.0
 10
176.804839
 20
97.015689
 30
0.0
 10
177.831679
 20
95.976848
 30
0.0
 10
179.048907
 20
94.443170
 30
0.0
 10
177.654088
 20
92.757120
 30
0.0
 10
175.919487
 20
93.665408
 30
0.0
 10
174.706637
 20
94.479399
 30
0.0
 10
174.358067
 20
94.778188
 30
0.0
 10
172.635929
 20
92.824809
 30
0.0
 10
172.976048
 20
92.516429
 30
0.0
 10
173.935639
 20
91.415169
 30
0.0
 10
175.054157
 20
89.808088
 30
0.0
 10
173.556229
 20
88.212938
 30
0.0
 10
171.882078
 20
89.228348
 30
0.0
 10
170.722737
 20
90.116899
 30
0.0
 10
170.393609
 20
90.436978
 30
0.0
 10
168.552217
 20
88.595589
 30
0.0
 10
168.872297
 20
88.266458
 30
0.0
 10
169.760847
 20
87.107118
 30
0.0
 10
170.776257
 20
85.432969
 30
0.0
 10
169.181108
 20
83.935039
 30
0.0
 10
167.574029
 20
85.053559
 30
0.0
 10
166.472769
 20
86.013148
 30
0.0
 10
166.164390
 20
86.353270
 30
0.0
 10
164.211008
 20
84.631128
 30
0.0
 10
164.509799
 20
84.282558
 30
0.0
 10
165.323787
 20
83.069708
 30
0.0
 10
166.232078
 20
81.335108
 30
0.0
 10
164.546029
 20
79.940288
 30
0.0
 10
163.012348
 20
81.157520
 30
0.0
 10
161.973509
 20
82.184360
 30
0.0
 10
161.687097
 20
82.543169
 30
0.0
 10
159.629427
 20
80.947078
 30
0.0
 10
159.905748
 20
80.580440
 30
0.0
 10
160.641977
 20
79.318869
 30
0.0
 10
161.439548
 20
77.530659
 30
0.0
 10
159.669247
 20
76.244458
 30
0.0
 10
158.215028
 20
77.555588
 30
0.0
 10
157.242708
 20
78.645629
 30
0.0
 10
156.979398
 20
79.021718
 30
0.0
 10
154.825568
 20
77.557980
 30
0.0
 10
155.078319
 20
77.174710
 30
0.0
 10
155.733888
 20
75.869409
 30
0.0
 10
156.417608
 20
74.034648
 30
0.0
 10
154.570028
 20
72.862139
 30
0.0
 10
153.201008
 20
74.261988
 30
0.0
 10
152.299059
 20
75.410939
 30
0.0
 10
152.059878
 20
75.802819
 30
0.0
 10
149.818389
 20
74.477208
 30
0.0
 10
150.046579
 20
74.078820
 30
0.0
 10
150.618889
 20
72.734930
 30
0.0
 10
151.186049
 20
70.860860
 30
0.0
 10
149.268498
 20
69.806678
 30
0.0
 10
147.990078
 20
71.289728
 30
0.0
 10
147.162049
 20
72.493040
 30
0.0
 10
146.947948
 20
72.899170
 30
0.0
 10
144.627648
 20
71.716919
 30
0.0
 10
144.830369
 20
71.304989
 30
0.0
 10
145.317168
 20
69.927809
 30
0.0
 10
145.765539
 20
68.021828
 30
0.0
 10
143.785579
 20
67.090129
 30
0.0
 10
142.602799
 20
68.650528
 30
0.0
 10
141.851959
 20
69.903460
 30
0.0
 10
141.663777
 20
70.322229
 30
0.0
 10
139.273828
 20
69.287999
 30
0.0
 10
139.450278
 20
68.864158
 30
0.0
 10
139.849648
 20
67.459128
 30
0.0
 10
140.177459
 20
65.528759
 30
0.0
 10
138.142898
 20
64.723220
 30
0.0
 10
137.060429
 20
66.354810
 30
0.0
 10
136.389748
 20
67.652408
 30
0.0
 10
136.228238
 20
68.082168
 30
0.0
 10
133.778059
 20
67.200048
 30
0.0
 10
133.927548
 20
66.765959
 30
0.0
 10
134.237899
 20
65.338630
 30
0.0
 10
134.443859
 20
63.391479
 30
0.0
 10
132.362739
 20
62.715278
 30
0.0
 10
131.384850
 20
64.411620
 30
0.0
 10
130.796969
 20
65.748768
 30
0.0
 10
130.662759
 20
66.187829
 30
0.0
 10
128.162029
 20
65.461299
 30
0.0
 10
128.283967
 20
65.018680
 30
0.0
 10
128.504087
 20
63.574679
 30
0.0
 10
128.587389
 20
61.618437
 30
0.0
 10
126.467918
 20
61.074248
 30
0.0
 10
125.598478
 20
62.828639
 30
0.0
 10
125.095717
 20
64.200070
 30
0.0
 10
124.989339
 20
64.646678
 30
0.0
 10
122.447928
 20
64.078610
 30
0.0
 10
122.541829
 20
63.629210
 30
0.0
 10
122.670837
 20
62.174240
 30
0.0
 10
122.631139
 20
60.216630
 30
0.0
 10
120.481677
 20
59.806600
 30
0.0
 10
119.724109
 20
61.612119
 30
0.0
 10
119.308449
 20
63.012408
 30
0.0
 10
119.230349
 20
63.464819
 30
0.0
 10
116.658279
 20
63.057448
 30
0.0
 10
116.723779
 20
62.603039
 30
0.0
 10
116.761178
 20
61.142828
 30
0.0
 10
116.598618
 20
59.191578
 30
0.0
 10
114.427659
 20
58.917319
 30
0.0
 10
113.784949
 20
60.766849
 30
0.0
 10
113.458038
 20
62.190480
 30
0.0
 10
113.408439
 20
62.646899
 30
0.0
 10
110.815869
 20
62.401829
 30
0.0
 10
110.852667
 20
61.944208
 30
0.0
 10
110.798269
 20
60.484539
 30
0.0
 10
110.513519
 20
58.547339
 30
0.0
 10
108.329619
 20
58.409938
 30
0.0
 10
107.804307
 20
60.296169
 30
0.0
 10
107.567439
 20
61.737518
 30
0.0
 10
107.546643
 20
62.196150
 30
0.0
 10
104.943804
 20
62.114349
 30
0.0
 10
104.951795
 20
61.655310
 30
0.0
 10
104.805895
 20
60.201930
 30
0.0
 10
104.400064
 20
58.286439
 30
0.0
 10
102.211846
 20
58.286439
 30
0.0
 10
101.806015
 20
60.201930
 30
0.0
 10
101.660116
 20
61.655310
 30
0.0
 10
101.668106
 20
62.114349
 30
0.0
 10
99.065265
 20
62.196150
 30
0.0
 10
99.044469
 20
61.737518
 30
0.0
 10
98.807601
 20
60.296169
 30
0.0
 10
98.282289
 20
58.409938
 30
0.0
 10
96.098389
 20
58.547339
 30
0.0
 10
95.813639
 20
60.484539
 30
0.0
 10
95.759281
 20
61.944208
 30
0.0
 10
95.796121
 20
62.401829
 30
0.0
 10
93.203551
 20
62.646899
 30
0.0
 10
93.153989
 20
62.190480
 30
0.0
 10
92.827081
 20
60.766849
 30
0.0
 10
92.184371
 20
58.917319
 30
0.0
 10
90.013409
 20
59.191578
 30
0.0
 10
89.850852
 20
61.142828
 30
0.0
 10
89.888251
 20
62.603039
 30
0.0
 10
89.953761
 20
63.057448
 30
0.0
 10
87.381691
 20
63.464819
 30
0.0
 10
87.303570
 20
63.012408
 30
0.0
 10
86.887910
 20
61.612119
 30
0.0
 10
86.130339
 20
59.806600
 30
0.0
 10
83.980880
 20
60.216630
 30
0.0
 10
83.941171
 20
62.174240
 30
0.0
 10
84.070179
 20
63.629210
 30
0.0
 10
84.164091
 20
64.078610
 30
0.0
 10
81.622680
 20
64.646678
 30
0.0
 10
81.516299
 20
64.200070
 30
0.0
 10
81.013541
 20
62.828639
 30
0.0
 10
80.144101
 20
61.074248
 30
0.0
 10
78.024630
 20
61.618437
 30
0.0
 10
78.107910
 20
63.574679
 30
0.0
 10
78.328031
 20
65.018680
 30
0.0
 10
78.449969
 20
65.461299
 30
0.0
 10
75.949241
 20
66.187829
 30
0.0
 10
75.815031
 20
65.748768
 30
0.0
 10
75.227151
 20
64.411620
 30
0.0
 10
74.249261
 20
62.715278
 30
0.0
 10
72.168142
 20
63.391479
 30
0.0
 10
72.374101
 20
65.338630
 30
0.0
 10
72.684450
 20
66.765959
 30
0.0
 10
72.833939
 20
67.200048
 30
0.0
 10
70.383760
 20
68.082168
 30
0.0
 10
70.222250
 20
67.652408
 30
0.0
 10
69.551571
 20
66.354810
 30
0.0
 10
68.469100
 20
64.723220
 30
0.0
 10
66.434541
 20
65.528759
 30
0.0
 10
66.762350
 20
67.459128
 30
0.0
 10
67.161720
 20
68.864158
 30
0.0
 10
67.338170
 20
69.287999
 30
0.0
 10
64.948221
 20
70.322229
 30
0.0
 10
64.760041
 20
69.903460
 30
0.0
 10
64.009201
 20
68.650528
 30
0.0
 10
62.826421
 20
67.090129
 30
0.0
 10
60.846459
 20
68.021828
 30
0.0
 10
61.294830
 20
69.927809
 30
0.0
 10
61.781629
 20
71.304989
 30
0.0
 10
61.984350
 20
71.716919
 30
0.0
 10
59.664050
 20
72.899170
 30
0.0
 10
59.449951
 20
72.493040
 30
0.0
 10
58.621919
 20
71.289728
 30
0.0
 10
57.343500
 20
69.806678
 30
0.0
 10
55.425951
 20
70.860860
 30
0.0
 10
55.993109
 20
72.734930
 30
0.0
 10
56.565419
 20
74.078820
 30
0.0
 10
56.793612
 20
74.477208
 30
0.0
 10
54.552120
 20
75.802819
 30
0.0
 10
54.312939
 20
75.410939
 30
0.0
 10
53.410990
 20
74.261988
 30
0.0
 10
52.041970
 20
72.862139
 30
0.0
 10
50.194390
 20
74.034648
 30
0.0
 10
50.878110
 20
75.869409
 30
0.0
 10
51.533679
 20
77.174710
 30
0.0
 10
51.786430
 20
77.557980
 30
0.0
 10
49.632600
 20
79.021718
 30
0.0
 10
49.369289
 20
78.645629
 30
0.0
 10
48.396970
 20
77.555588
 30
0.0
 10
46.942751
 20
76.244458
 30
0.0
 10
45.172450
 20
77.530659
 30
0.0
 10
45.970021
 20
79.318869
 30
0.0
 10
46.706250
 20
80.580440
 30
0.0
 10
46.982571
 20
80.947078
 30
0.0
 10
44.924901
 20
82.543169
 30
0.0
 10
44.638489
 20
82.184360
 30
0.0
 10
43.599650
 20
81.157520
 30
0.0
 10
42.065969
 20
79.940288
 30
0.0
 10
40.379920
 20
81.335108
 30
0.0
 10
41.288211
 20
83.069708
 30
0.0
 10
42.102201
 20
84.282558
 30
0.0
 10
42.400990
 20
84.631128
 30
0.0
 10
40.447611
 20
86.353270
 30
0.0
 10
40.139231
 20
86.013148
 30
0.0
 10
39.037969
 20
85.053559
 30
0.0
 10
37.430890
 20
83.935039
 30
0.0
 10
35.835741
 20
85.432969
 30
0.0
 10
36.851151
 20
87.107118
 30
0.0
 10
37.739701
 20
88.266458
 30
0.0
 10
38.059781
 20
88.595589
 30
0.0
 10
36.218389
 20
90.436978
 30
0.0
 10
35.889261
 20
90.116899
 30
0.0
 10
34.729920
 20
89.228348
 30
0.0
 10
33.055769
 20
88.212938
 30
0.0
 10
31.557841
 20
89.808088
 30
0.0
 10
32.676359
 20
91.415169
 30
0.0
 10
33.635950
 20
92.516429
 30
0.0
 10
33.976069
 20
92.824809
 30
0.0
 10
32.253931
 20
94.778188
 30
0.0
 10
31.905361
 20
94.479399
 30
0.0
 10
30.692511
 20
93.665408
 30
0.0
 10
28.957910
 20
92.757120
 30
0.0
 10
27.563090
 20
94.443170
 30
0.0
 10
28.780319
 20
95.976848
 30
0.0
 10
29.807159
 20
97.015689
 30
0.0
 10
30.165971
 20
97.302098
 30
0.0
 10
28.569880
 20
99.359768
 30
0.0
 10
28.203239
 20
99.083448
 30
0.0
 10
26.941672
 20
98.347218
 30
0.0
 10
25.153460
 20
97.549648
 30
0.0
 10
23.867260
 20
99.319948
 30
0.0
 10
25.178398
 20
100.774188
 30
0.0
 10
26.268439
 20
101.746508
 30
0.0
 10
26.644529
 20
102.009816
 30
0.0
 10
25.180788
 20
104.163646
 30
0.0
 10
24.797518
 20
103.910898
 30
0.0
 10
23.492218
 20
103.255326
 30
0.0
 10
21.657458
 20
102.571606
 30
0.0
 10
20.484948
 20
104.419186
 30
0.0
 10
21.884798
 20
105.788207
 30
0.0
 10
23.033748
 20
106.690158
 30
0.0
 10
23.425628
 20
106.929339
 30
0.0
 10
22.100018
 20
109.170828
 30
0.0
 10
21.701628
 20
108.942638
 30
0.0
 10
20.357738
 20
108.370328
 30
0.0
 10
18.483668
 20
107.803167
 30
0.0
 10
17.429488
 20
109.720717
 30
0.0
 10
18.912538
 20
110.999138
 30
0.0
 10
20.115848
 20
111.827168
 30
0.0
 10
20.521978
 20
112.041268
 30
0.0
 10
19.339728
 20
114.361566
 30
0.0
 10
18.927798
 20
114.158848
 30
0.0
 10
17.550618
 20
113.672046
 30
0.0
 10
15.644638
 20
113.223678
 30
0.0
 10
14.712938
 20
115.203637
 30
0.0
 10
16.273338
 20
116.386417
 30
0.0
 10
17.526268
 20
117.137257
 30
0.0
 10
17.945038
 20
117.325437
 30
0.0
 10
16.910808
 20
119.715386
 30
0.0
 10
16.486968
 20
119.538938
 30
0.0
 10
15.081938
 20
119.139568
 30
0.0
 10
13.151568
 20
118.811758
 30
0.0
 10
12.346028
 20
120.846316
 30
0.0
 10
13.977618
 20
121.928787
 30
0.0
 10
15.275218
 20
122.599466
 30
0.0
 10
15.704978
 20
122.760979
 30
0.0
 10
14.822858
 20
125.211158
 30
0.0
 10
14.388768
 20
125.061668
 30
0.0
 10
12.961438
 20
124.751317
 30
0.0
 10
11.014288
 20
124.545358
 30
0.0
 10
10.338088
 20
126.626478
 30
0.0
 10
12.034428
 20
127.604367
 30
0.0
 10
13.371578
 20
128.192247
 30
0.0
 10
13.810638
 20
128.326457
 30
0.0
 10
13.084108
 20
130.827188
 30
0.0
 10
12.641488
 20
130.705247
 30
0.0
 10
11.197488
 20
130.485127
 30
0.0
 10
9.241248
 20
130.401828
 30
0.0
 10
8.697058
 20
132.521296
 30
0.0
 10
10.451448
 20
133.390738
 30
0.0
 10
11.822878
 20
133.893497
 30
0.0
 10
12.269488
 20
133.999878
 30
0.0
 10
11.701418
 20
136.541288
 30
0.0
 10
11.252018
 20
136.447388
 30
0.0
 10
9.797048
 20
136.318377
 30
0.0
 10
7.839438
 20
136.358078
 30
0.0
 10
7.429408
 20
138.507537
 30
0.0
 10
9.234928
 20
139.265108
 30
0.0
 10
10.635218
 20
139.680768
 30
0.0
 10
11.087628
 20
139.758868
 30
0.0
 10
10.680258
 20
142.330938
 30
0.0
 10
10.225848
 20
142.265438
 30
0.0
 10
8.765638
 20
142.228036
 30
0.0
 10
6.814388
 20
142.390596
 30
0.0
 10
6.540128
 20
144.561558
 30
0.0
 10
8.389658
 20
145.204268
 30
0.0
 10
9.813288
 20
145.531176
 30
0.0
 10
10.269708
 20
145.580778
 30
0.0
 10
10.024638
 20
148.173348
 30
0.0
 10
9.567018
 20
148.136547
 30
0.0
 10
8.107348
 20
148.190948
 30
0.0
 10
6.170148
 20
148.475698
 30
0.0
 10
6.032748
 20
150.659598
 30
0.0
 10
7.918978
 20
151.184907
 30
0.0
 10
9.360328
 20
151.421778
 30
0.0
 10
9.818958
 20
151.442574
 30
0.0
 10
9.737168
 20
154.045415
 30
0.0
 10
9.278128
 20
154.037425
 30
0.0
 10
7.824748
 20
154.183324
 30
0.0
 10
5.909258
 20
154.589155
 30
0.0
 10
5.909258
 20
156.777376
 30
0.0
 10
7.824748
 20
157.183204
 30
0.0
 10
9.278128
 20
157.329106
 30
0.0
 10
9.737168
 20
157.321116
 30
0.0
 10
9.818958
 20
159.923957
 30
0.0
 10
9.360328
 20
159.944753
 30
0.0
 10
7.918978
 20
160.181624
 30
0.0
 10
6.032748
 20
160.706933
 30
0.0
 10
6.170148
 20
162.890833
 30
0.0
 10
8.107348
 20
163.175583
 30
0.0
 10
9.567018
 20
163.229984
 30
0.0
 10
10.024638
 20
163.193183
 30
0.0
 10
10.269708
 20
165.785753
 30
0.0
 10
9.813288
 20
165.835352
 30
0.0
 10
8.389658
 20
166.162263
 30
0.0
 10
6.540128
 20
166.804973
 30
0.0
 10
6.814388
 20
168.975932
 30
0.0
 10
8.765638
 20
169.138492
 30
0.0
 10
10.225848
 20
169.101093
 30
0.0
 10
10.680258
 20
169.035593
 30
0.0
 10
11.087628
 20
171.607663
 30
0.0
 10
10.635218
 20
171.685763
 30
0.0
 10
9.234928
 20
172.101423
 30
0.0
 10
7.429408
 20
172.858994
 30
0.0
 10
7.839438
 20
175.008453
 30
0.0
 10
9.797048
 20
175.048154
 30
0.0
 10
11.252018
 20
174.919143
 30
0.0
 10
11.701418
 20
174.825242
 30
0.0
 10
12.269488
 20
177.366653
 30
0.0
 10
11.822878
 20
177.473034
 30
0.0
 10
10.451448
 20
177.975792
 30
0.0
 10
8.697058
 20
178.845232
 30
0.0
 10
9.241248
 20
180.964703
 30
0.0
 10
11.197488
 20
180.881404
 30
0.0
 10
12.641488
 20
180.661284
 30
0.0
 10
13.084108
 20
180.539343
 30
0.0
 10
13.810638
 20
183.040073
 30
0.0
 10
13.371578
 20
183.174283
 30
0.0
 10
12.034428
 20
183.762164
 30
0.0
 10
10.338088
 20
184.740053
 30
0.0
 10
11.014288
 20
186.821173
 30
0.0
 10
12.961438
 20
186.615213
 30
0.0
 10
14.388768
 20
186.304862
 30
0.0
 10
14.822858
 20
186.155373
 30
0.0
 10
15.704978
 20
188.605552
 30
0.0
 10
15.275218
 20
188.767064
 30
0.0
 10
13.977618
 20
189.437743
 30
0.0
 10
12.346028
 20
190.520212
 30
0.0
 10
13.151568
 20
192.554773
 30
0.0
 10
15.081938
 20
192.226962
 30
0.0
 10
16.486968
 20
191.827592
 30
0.0
 10
16.910808
 20
191.651144
 30
0.0
 10
17.945038
 20
194.041094
 30
0.0
 10
17.526268
 20
194.229274
 30
0.0
 10
16.273338
 20
194.980113
 30
0.0
 10
14.712938
 20
196.162893
 30
0.0
 10
15.644638
 20
198.142853
 30
0.0
 10
17.550618
 20
197.694484
 30
0.0
 10
18.927798
 20
197.207683
 30
0.0
 10
19.339728
 20
197.004962
 30
0.0
 10
20.521978
 20
199.325262
 30
0.0
 10
20.115848
 20
199.539363
 30
0.0
 10
18.912538
 20
200.367393
 30
0.0
 10
17.429488
 20
201.645814
 30
0.0
 10
18.483668
 20
203.563363
 30
0.0
 10
20.357738
 20
202.996203
 30
0.0
 10
21.701628
 20
202.423893
 30
0.0
 10
22.100018
 20
202.195703
 30
0.0
 10
23.425628
 20
204.437192
 30
0.0
 10
23.033748
 20
204.676373
 30
0.0
 10
21.884798
 20
205.578324
 30
0.0
 10
20.484948
 20
206.947345
 30
0.0
 10
21.657458
 20
208.794922
 30
0.0
 10
23.492218
 20
208.111204
 30
0.0
 10
24.797518
 20
207.455633
 30
0.0
 10
25.180788
 20
207.202884
 30
0.0
 10
26.644529
 20
209.356714
 30
0.0
 10
26.268439
 20
209.620023
 30
0.0
 10
25.178398
 20
210.592327
 30
0.0
 10
23.867268
 20
212.046548
 30
0.0
 10
25.153468
 20
213.816846
 30
0.0
 10
26.941679
 20
213.019278
 30
0.0
 10
28.203247
 20
212.283048
 30
0.0
 10
28.569888
 20
212.006728
 30
0.0
 10
30.165979
 20
214.064398
 30
0.0
 10
29.807167
 20
214.350807
 30
0.0
 10
28.780327
 20
215.389648
 30
0.0
 10
27.563098
 20
216.923327
 30
0.0
 10
28.957918
 20
218.609376
 30
0.0
 10
30.692519
 20
217.701088
 30
0.0
 10
31.905369
 20
216.887097
 30
0.0
 10
32.253939
 20
216.588306
 30
0.0
 10
33.976077
 20
218.541688
 30
0.0
 10
33.635958
 20
218.850068
 30
0.0
 10
32.676367
 20
219.951327
 30
0.0
 10
31.557849
 20
221.558406
 30
0.0
 10
33.055777
 20
223.153558
 30
0.0
 10
34.729928
 20
222.138148
 30
0.0
 10
35.889269
 20
221.249598
 30
0.0
 10
36.218397
 20
220.929518
 30
0.0
 10
38.059789
 20
222.770907
 30
0.0
 10
37.739709
 20
223.100038
 30
0.0
 10
36.851159
 20
224.259376
 30
0.0
 10
35.835749
 20
225.933527
 30
0.0
 10
37.430898
 20
227.431458
 30
0.0
 10
39.037977
 20
226.312937
 30
0.0
 10
40.139239
 20
225.353346
 30
0.0
 10
40.447619
 20
225.013227
 30
0.0
 10
42.400998
 20
226.735368
 30
0.0
 10
42.102209
 20
227.083938
 30
0.0
 10
41.288219
 20
228.296788
 30
0.0
 10
40.379928
 20
230.031388
 30
0.0
 10
42.065977
 20
231.426208
 30
0.0
 10
43.599658
 20
230.208977
 30
0.0
 10
44.638497
 20
229.182137
 30
0.0
 10
44.924909
 20
228.823327
 30
0.0
 10
46.982578
 20
230.419418
 30
0.0
 10
46.706258
 20
230.786057
 30
0.0
 10
45.970029
 20
232.047627
 30
0.0
 10
45.172458
 20
233.835837
 30
0.0
 10
46.942759
 20
235.122038
 30
0.0
 10
48.396977
 20
233.810908
 30
0.0
 10
49.369297
 20
232.720867
 30
0.0
 10
49.632608
 20
232.344778
 30
0.0
 10
51.786438
 20
233.808517
 30
0.0
 10
51.533687
 20
234.191787
 30
0.0
 10
50.878118
 20
235.497087
 30
0.0
 10
50.194398
 20
237.331848
 30
0.0
 10
52.041978
 20
238.504357
 30
0.0
 10
53.410998
 20
237.104508
 30
0.0
 10
54.312947
 20
235.955557
 30
0.0
 10
54.552128
 20
235.563678
 30
0.0
 10
56.793619
 20
236.889288
 30
0.0
 10
56.565427
 20
237.287676
 30
0.0
 10
55.993117
 20
238.631566
 30
0.0
 10
55.425959
 20
240.505637
 30
0.0
 10
57.343508
 20
241.559816
 30
0.0
 10
58.621927
 20
240.076768
 30
0.0
 10
59.449959
 20
238.873457
 30
0.0
 10
59.664058
 20
238.467326
 30
0.0
 10
61.984358
 20
239.649577
 30
0.0
 10
61.781637
 20
240.061507
 30
0.0
 10
61.294838
 20
241.438687
 30
0.0
 10
60.846467
 20
243.344666
 30
0.0
 10
62.826429
 20
244.276367
 30
0.0
 10
64.009209
 20
242.715969
 30
0.0
 10
64.760049
 20
241.463037
 30
0.0
 10
64.948229
 20
241.044268
 30
0.0
 10
67.338178
 20
242.078497
 30
0.0
 10
67.161727
 20
242.502339
 30
0.0
 10
66.762357
 20
243.907366
 30
0.0
 10
66.434549
 20
245.837737
 30
0.0
 10
68.469108
 20
246.643277
 30
0.0
 10
69.551579
 20
245.011687
 30
0.0
 10
70.222258
 20
243.714088
 30
0.0
 10
70.383768
 20
243.284328
 30
0.0
 10
72.833947
 20
244.166446
 30
0.0
 10
72.684457
 20
244.600537
 30
0.0
 10
72.374109
 20
246.027867
 30
0.0
 10
72.168150
 20
247.975017
 30
0.0
 10
74.249269
 20
248.651218
 30
0.0
 10
75.227159
 20
246.954877
 30
0.0
 10
75.815039
 20
245.617728
 30
0.0
 10
75.949249
 20
245.178668
 30
0.0
 10
78.449977
 20
245.905198
 30
0.0
 10
78.328038
 20
246.347817
 30
0.0
 10
78.107918
 20
247.791817
 30
0.0
 10
78.024638
 20
249.748056
 30
0.0
 10
80.144109
 20
250.292246
 30
0.0
 10
81.013549
 20
248.537858
 30
0.0
 10
81.516307
 20
247.166427
 30
0.0
 10
81.622688
 20
246.719818
 30
0.0
 10
84.164099
 20
247.287886
 30
0.0
 10
84.070187
 20
247.737287
 30
0.0
 10
83.941179
 20
249.192257
 30
0.0
 10
83.980888
 20
251.149867
 30
0.0
 10
86.130347
 20
251.559897
 30
0.0
 10
86.887918
 20
249.754377
 30
0.0
 10
87.303578
 20
248.354089
 30
0.0
 10
87.381699
 20
247.901677
 30
0.0
 10
89.953769
 20
248.309049
 30
0.0
 10
89.888258
 20
248.763457
 30
0.0
 10
89.850860
 20
250.223666
 30
0.0
 10
90.013417
 20
252.174918
 30
0.0
 10
92.184379
 20
252.449177
 30
0.0
 10
92.827089
 20
250.599647
 30
0.0
 10
93.153997
 20
249.176017
 30
0.0
 10
93.203559
 20
248.719597
 30
0.0
 10
95.796129
 20
248.964667
 30
0.0
 10
95.759289
 20
249.422288
 30
0.0
 10
95.813647
 20
250.881957
 30
0.0
 10
96.098397
 20
252.819157
 30
0.0
 10
98.282297
 20
252.956558
 30
0.0
 10
98.807609
 20
251.070327
 30
0.0
 10
99.044477
 20
249.628978
 30
0.0
 10
99.065273
 20
249.170347
 30
0.0
 10
101.668114
 20
249.252137
 30
0.0
 10
101.660124
 20
249.711176
 30
0.0
 10
101.806023
 20
251.164556
 30
0.0
 10
102.211854
 20
253.080047
 30
0.0
 10
104.400072
 20
253.080047
 30
0.0
 10
104.805903
 20
251.164556
 30
0.0
 10
104.951803
 20
249.711176
 30
0.0
 10
104.943812
 20
249.252137
 30
0.0
 10
107.546651
 20
249.170347
 30
0.0
 10
107.567447
 20
249.628978
 30
0.0
 10
107.804315
 20
251.070327
 30
0.0
 10
108.329627
 20
252.956558
 30
0.0
 10
110.513527
 20
252.819157
 30
0.0
 10
110.798277
 20
250.881957
 30
0.0
 10
110.852675
 20
249.422288
 30
0.0
 10
110.815877
 20
248.964667
 30
0.0
 10
113.408447
 20
248.719597
 30
0.0
 10
113.458046
 20
249.176017
 30
0.0
 10
113.784957
 20
250.599647
 30
0.0
 10
114.427667
 20
252.449177
 30
0.0
 10
116.598626
 20
252.174918
 30
0.0
 10
116.761186
 20
250.223666
 30
0.0
 10
116.723787
 20
248.763457
 30
0.0
 10
116.658287
 20
248.309049
 30
0.0
 10
119.230357
 20
247.901677
 30
0.0
 10
119.308457
 20
248.354089
 30
0.0
 10
119.724117
 20
249.754377
 30
0.0
 10
120.481685
 20
251.559897
 30
0.0
 10
122.631147
 20
251.149867
 30
0.0
 10
122.670845
 20
249.192257
 30
0.0
 10
122.541837
 20
247.737287
 30
0.0
 10
122.447936
 20
247.287886
 30
0.0
 10
124.989347
 20
246.719818
 30
0.0
 10
125.095725
 20
247.166427
 30
0.0
 10
125.598486
 20
248.537858
 30
0.0
 10
126.467926
 20
250.292246
 30
0.0
 10
128.587397
 20
249.748056
 30
0.0
 10
128.504095
 20
247.791817
 30
0.0
 10
128.283975
 20
246.347817
 30
0.0
 10
128.162037
 20
245.905198
 30
0.0
 10
130.662767
 20
245.178668
 30
0.0
 10
130.796977
 20
245.617728
 30
0.0
 10
131.384858
 20
246.954877
 30
0.0
 10
132.362747
 20
248.651218
 30
0.0
 10
134.443867
 20
247.975017
 30
0.0
 10
134.237907
 20
246.027867
 30
0.0
 10
133.927556
 20
244.600537
 30
0.0
 10
133.778067
 20
244.166446
 30
0.0
 10
136.228246
 20
243.284328
 30
0.0
 10
136.389756
 20
243.714088
 30
0.0
 10
137.060437
 20
245.011687
 30
0.0
 10
138.142906
 20
246.643277
 30
0.0
 10
140.177467
 20
245.837737
 30
0.0
 10
139.849656
 20
243.907366
 30
0.0
 10
139.450286
 20
242.502339
 30
0.0
 10
139.273836
 20
242.078497
 30
0.0
 10
141.663785
 20
241.044268
 30
0.0
 10
141.851967
 20
241.463037
 30
0.0
 10
142.602807
 20
242.715969
 30
0.0
 10
143.785587
 20
244.276367
 30
0.0
 10
145.765546
 20
243.344666
 30
0.0
 10
145.317176
 20
241.438687
 30
0.0
 10
144.830377
 20
240.061507
 30
0.0
 10
144.627656
 20
239.649577
 30
0.0
 10
146.947956
 20
238.467326
 30
0.0
 10
147.162057
 20
238.873457
 30
0.0
 10
147.990086
 20
240.076768
 30
0.0
 10
149.268505
 20
241.559816
 30
0.0
 10
151.186057
 20
240.505637
 30
0.0
 10
150.618896
 20
238.631566
 30
0.0
 10
150.046587
 20
237.287676
 30
0.0
 10
149.818397
 20
236.889288
 30
0.0
 10
152.059886
 20
235.563678
 30
0.0
 10
152.299067
 20
235.955557
 30
0.0
 10
153.201015
 20
237.104508
 30
0.0
 10
154.570036
 20
238.504357
 30
0.0
 10
156.417616
 20
237.331848
 30
0.0
 10
155.733896
 20
235.497087
 30
0.0
 10
155.078327
 20
234.191787
 30
0.0
 10
154.825576
 20
233.808517
 30
0.0
 10
156.979406
 20
232.344778
 30
0.0
 10
157.242716
 20
232.720867
 30
0.0
 10
158.215036
 20
233.810908
 30
0.0
 10
159.669255
 20
235.122038
 30
0.0
 10
161.439556
 20
233.835837
 30
0.0
 10
160.641985
 20
232.047627
 30
0.0
 10
159.905756
 20
230.786057
 30
0.0
 10
159.629435
 20
230.419418
 30
0.0
 10
161.687105
 20
228.823327
 30
0.0
 10
161.973517
 20
229.182137
 30
0.0
 10
163.012355
 20
230.208977
 30
0.0
 10
164.546037
 20
231.426208
 30
0.0
 10
166.232086
 20
230.031388
 30
0.0
 10
165.323795
 20
228.296788
 30
0.0
 10
164.509807
 20
227.083938
 30
0.0
 10
164.211016
 20
226.735368
 30
0.0
 10
166.164398
 20
225.013227
 30
0.0
 10
166.472777
 20
225.353346
 30
0.0
 10
167.574037
 20
226.312937
 30
0.0
 10
169.181116
 20
227.431458
 30
0.0
 10
170.776265
 20
225.933527
 30
0.0
 10
169.760855
 20
224.259376
 30
0.0
 10
168.872305
 20
223.100038
 30
0.0
 10
168.552225
 20
222.770907
 30
0.0
 10
170.393617
 20
220.929518
 30
0.0
 10
170.722745
 20
221.249598
 30
0.0
 10
171.882086
 20
222.138148
 30
0.0
 10
173.556237
 20
223.153558
 30
0.0
 10
175.054165
 20
221.558406
 30
0.0
 10
173.935647
 20
219.951327
 30
0.0
 10
172.976056
 20
218.850068
 30
0.0
 10
172.635937
 20
218.541688
 30
0.0
 10
174.358075
 20
216.588306
 30
0.0
 10
174.706645
 20
216.887097
 30
0.0
 10
175.919495
 20
217.701088
 30
0.0
 10
177.654096
 20
218.609376
 30
0.0
 10
179.048915
 20
216.923327
 30
0.0
 10
177.831686
 20
215.389648
 30
0.0
 10
176.804847
 20
214.350807
 30
0.0
 10
176.446037
 20
214.064398
 30
0.0
 10
178.042125
 20
212.006728
 30
0.0
 10
178.408767
 20
212.283048
 30
0.0
 10
179.670337
 20
213.019278
 30
0.0
 10
181.458547
 20
213.816846
 30
0.0
 10
182.744745
 20
212.046548
 30
0.0
 10
181.433616
 20
210.592327
 30
0.0
 10
180.343577
 20
209.620007
 30
0.0
 10
179.967485
 20
209.356699
 30
0.0
 10
181.431226
 20
207.202869
 30
0.0
 10
181.814496
 20
207.455617
 30
0.0
 10
183.119797
 20
208.111188
 30
0.0
 10
184.954556
 20
208.794906
 30
0.0
 10
186.127067
 20
206.947329
 30
0.0
 10
184.727215
 20
205.578308
 30
0.0
 10
183.578267
 20
204.676357
 30
0.0
 10
183.186385
 20
204.437176
 30
0.0
 10
184.511995
 20
202.195687
 30
0.0
 10
184.910386
 20
202.423877
 30
0.0
 10
186.254276
 20
202.996187
 30
0.0
 10
188.128346
 20
203.563348
 30
0.0
 10
189.182526
 20
201.645798
 30
0.0
 10
187.699475
 20
200.367377
 30
0.0
 10
186.496166
 20
199.539347
 30
0.0
 10
186.090036
 20
199.325246
 30
0.0
 10
187.272287
 20
197.004946
 30
0.0
 10
187.684217
 20
197.207667
 30
0.0
 10
189.061397
 20
197.694469
 30
0.0
 10
190.967376
 20
198.142837
 30
0.0
 10
191.899077
 20
196.162878
 30
0.0
 10
190.338676
 20
194.980098
 30
0.0
 10
189.085747
 20
194.229258
 30
0.0
 10
188.666977
 20
194.041078
 30
0.0
 10
189.701207
 20
191.651129
 30
0.0
 10
190.125046
 20
191.827577
 30
0.0
 10
191.530076
 20
192.226947
 30
0.0
 10
193.460447
 20
192.554757
 30
0.0
 10
194.265987
 20
190.520196
 30
0.0
 10
192.634396
 20
189.437728
 30
0.0
 10
191.336795
 20
188.767048
 30
0.0
 10
190.907035
 20
188.605536
 30
0.0
 10
191.789156
 20
186.155357
 30
0.0
 10
192.223247
 20
186.304847
 30
0.0
 10
193.650576
 20
186.615198
 30
0.0
 10
195.597727
 20
186.821157
 30
0.0
 10
196.273925
 20
184.740037
 30
0.0
 10
194.577586
 20
183.762148
 30
0.0
 10
193.240435
 20
183.174267
 30
0.0
 10
192.801375
 20
183.040058
 30
0.0
 10
193.527905
 20
180.539327
 30
0.0
 10
193.970526
 20
180.661268
 30
0.0
 10
195.414527
 20
180.881388
 30
0.0
 10
197.370766
 20
180.964687
 30
0.0
 10
197.914956
 20
178.845216
 30
0.0
 10
196.160567
 20
177.975776
 30
0.0
 10
194.789137
 20
177.473018
 30
0.0
 10
194.342525
 20
177.366637
 30
0.0
 10
194.910596
 20
174.825227
 30
0.0
 10
195.359996
 20
174.919127
 30
0.0
 10
196.814967
 20
175.048138
 30
0.0
 10
198.772576
 20
175.008437
 30
0.0
 10
199.182606
 20
172.858978
 30
0.0
 10
197.377087
 20
172.101407
 30
0.0
 10
195.976796
 20
171.685747
 30
0.0
 10
195.524387
 20
171.607647
 30
0.0
 10
195.931756
 20
169.035577
 30
0.0
 10
196.386167
 20
169.101077
 30
0.0
 10
197.846376
 20
169.138476
 30
0.0
 10
199.797625
 20
168.975916
 30
0.0
 10
200.071887
 20
166.804957
 30
0.0
 10
198.222357
 20
166.162247
 30
0.0
 10
196.798726
 20
165.835336
 30
0.0
 10
196.342307
 20
165.785737
 30
0.0
 10
196.587377
 20
163.193167
 30
0.0
 10
197.044995
 20
163.229968
 30
0.0
 10
198.504667
 20
163.175567
 30
0.0
 10
200.441867
 20
162.890817
 30
0.0
 10
200.579265
 20
160.706917
 30
0.0
 10
198.693037
 20
160.181608
 30
0.0
 10
197.251685
 20
159.944737
 30
0.0
 10
196.793056
 20
159.923941
 30
0.0
 10
196.874855
 20
157.321100
 30
0.0
 10
196.874847
 20
157.321097
 30
0.0
 10
196.874847
 20
157.321097
 30
0.0
  0
SPLINE
  5
138
100
AcDbEntity
  8
Layer_1
 62
7
100
AcDbSpline
 70
8
 71
3
 72
8
 73
4
 74
0
 40
0
 40
0
 40
0
 40
0
 40
1
 40
1
 40
1
 40
1
 10
14.025327
 20
285.362132
 30
0.0
 10
14.025327
 20
282.511188
 30
0.0
 10
11.715445
 20
280.200042
 30
0.0
 10
8.866061
 20
280.200042
 30
0.0
  0
SPLINE
  5
139
100
AcDbEntity
  8
Layer_1
 62
7
100
AcDbSpline
 70
8
 71
3
 72
8
 73
4
 74
0
 40
0
 40
0
 40
0
 40
0
 40
1
 40
1
 40
1
 40
1
 10
8.866061
 20
280.200042
 30
0.0
 10
6.016676
 20
280.200042
 30
0.0
 10
3.706795
 20
282.511188
 30
0.0
 10
3.706795
 20
285.362132
 30
0.0
  0
SPLINE
  5
13a
100
AcDbEntity
  8
Layer_1
 62
7
100
AcDbSpline
 70
8
 71
3
 72
8
 73
4
 74
0
 40
0
 40
0
 40
0
 40
0
 40
1
 40
1
 40
1
 40
1
 10
3.706795
 20
285.362132
 30
0.0
 10
3.706795
 20
287.206369
 30
0.0
 10
4.690145
 20
288.910514
 30
0.0
 10
6.286428
 20
289.832632
 30
0.0
  0
SPLINE
  5
13b
100
AcDbEntity
  8
Layer_1
 62
7
100
AcDbSpline
 70
8
 71
3
 72
8
 73
4
 74
0
 40
0
 40
0
 40
0
 40
0
 40
1
 40
1
 40
1
 40
1
 10
6.286428
 20
289.832632
 30
0.0
 10
7.882710
 20
290.754750
 30
0.0
 10
9.849411
 20
290.754750
 30
0.0
 10
11.445694
 20
289.832632
 30
0.0
  0
SPLINE
  5
13c
100
AcDbEntity
  8
Layer_1
 62
7
100
AcDbSpline
 70
8
 71
3
 72
8
 73
4
 74
0
 40
0
 40
0
 40
0
 40
0
 40
1
 40
1
 40
1
 40
1
 10
11.445694
 20
289.832632
 30
0.0
 10
13.041976
 20
288.910514
 30
0.0
 10
14.025327
 20
287.206369
 30
0.0
 10
14.025327
 20
285.362132
 30
0.0
  0
SPLINE
  5
13d
100
AcDbEntity
  8
Layer_1
 62
7
100
AcDbSpline
 70
8
 71
3
 72
8
 73
4
 74
0
 40
0
 40
0
 40
0
 40
0
 40
1
 40
1
 40
1
 40
1
 10
119.180814
 20
285.362088
 30
0.0
 10
119.180814
 20
284.736873
 30
0.0
 10
118.847267
 20
284.159151
 30
0.0
 10
118.305815
 20
283.846544
 30
0.0
  0
SPLINE
  5
13e
100
AcDbEntity
  8
Layer_1
 62
7
100
AcDbSpline
 70
8
 71
3
 72
8
 73
4
 74
0
 40
0
 40
0
 40
0
 40
0
 40
1
 40
1
 40
1
 40
1
 10
118.305815
 20
283.846544
 30
0.0
 10
117.764364
 20
283.533936
 30
0.0
 10
117.097268
 20
283.533936
 30
0.0
 10
116.555814
 20
283.846544
 30
0.0
  0
SPLINE
  5
13f
100
AcDbEntity
  8
Layer_1
 62
7
100
AcDbSpline
 70
8
 71
3
 72
8
 73
4
 74
0
 40
0
 40
0
 40
0
 40
0
 40
1
 40
1
 40
1
 40
1
 10
116.555814
 20
283.846544
 30
0.0
 10
116.014362
 20
284.159151
 30
0.0
 10
115.680815
 20
284.736873
 30
0.0
 10
115.680815
 20
285.362088
 30
0.0
  0
SPLINE
  5
140
100
AcDbEntity
  8
Layer_1
 62
7
100
AcDbSpline
 70
8
 71
3
 72
8
 73
4
 74
0
 40
0
 40
0
 40
0
 40
0
 40
1
 40
1
 40
1
 40
1
 10
115.680815
 20
285.362088
 30
0.0
 10
115.680815
 20
285.987303
 30
0.0
 10
116.014362
 20
286.565025
 30
0.0
 10
116.555814
 20
286.877632
 30
0.0
  0
SPLINE
  5
141
100
AcDbEntity
  8
Layer_1
 62
7
100
AcDbSpline
 70
8
 71
3
 72
8
 73
4
 74
0
 40
0
 40
0
 40
0
 40
0
 40
1
 40
1
 40
1
 40
1
 10
116.555814
 20
286.877632
 30
0.0
 10
117.097268
 20
287.190240
 30
0.0
 10
117.764364
 20
287.190240
 30
0.0
 10
118.305815
 20
286.877632
 30
0.0
  0
SPLINE
  5
142
100
AcDbEntity
  8
Layer_1
 62
7
100
AcDbSpline
 70
8
 71
3
 72
8
 73
4
 74
0
 40
0
 40
0
 40
0
 40
0
 40
1
 40
1
 40
1
 40
1
 10
118.305815
 20
286.877632
 30
0.0
 10
118.847267
 20
286.565025
 30
0.0
 10
119.180814
 20
285.987303
 30
0.0
 10
119.180814
 20
285.362088
 30
0.0
  0
SPLINE
  5
143
100
AcDbEntity
  8
Layer_1
 62
7
100
AcDbSpline
 70
8
 71
3
 72
8
 73
4
 74
0
 40
0
 40
0
 40
0
 40
0
 40
1
 40
1
 40
1
 40
1
 10
107.332540
 20
285.362088
 30
0.0
 10
107.332540
 20
284.736873
 30
0.0
 10
106.998993
 20
284.159151
 30
0.0
 10
106.457542
 20
283.846544
 30
0.0
  0
SPLINE
  5
144
100
AcDbEntity
  8
Layer_1
 62
7
100
AcDbSpline
 70
8
 71
3
 72
8
 73
4
 74
0
 40
0
 40
0
 40
0
 40
0
 40
1
 40
1
 40
1
 40
1
 10
106.457542
 20
283.846544
 30
0.0
 10
105.916088
 20
283.533936
 30
0.0
 10
105.248994
 20
283.533936
 30
0.0
 10
104.707540
 20
283.846544
 30
0.0
  0
SPLINE
  5
145
100
AcDbEntity
  8
Layer_1
 62
7
100
AcDbSpline
 70
8
 71
3
 72
8
 73
4
 74
0
 40
0
 40
0
 40
0
 40
0
 40
1
 40
1
 40
1
 40
1
 10
104.707540
 20
283.846544
 30
0.0
 10
104.166088
 20
284.159151
 30
0.0
 10
103.832542
 20
284.736873
 30
0.0
 10
103.832542
 20
285.362088
 30
0.0
  0
SPLINE
  5
146
100
AcDbEntity
  8
Layer_1
 62
7
100
AcDbSpline
 70
8
 71
3
 72
8
 73
4
 74
0
 40
0
 40
0
 40
0
 40
0
 40
1
 40
1
 40
1
 40
1
 10
103.832542
 20
285.362088
 30
0.0
 10
103.832542
 20
285.987303
 30
0.0
 10
104.166088
 20
286.565025
 30
0.0
 10
104.707540
 20
286.877632
 30
0.0
  0
SPLINE
  5
147
100
AcDbEntity
  8
Layer_1
 62
7
100
AcDbSpline
 70
8
 71
3
 72
8
 73
4
 74
0
 40
0
 40
0
 40
0
 40
0
 40
1
 40
1
 40
1
 40
1
 10
104.707540
 20
286.877632
 30
0.0
 10
105.248994
 20
287.190240
 30
0.0
 10
105.916088
 20
287.190240
 30
0.0
 10
106.457542
 20
286.877632
 30
0.0
  0
SPLINE
  5
148
100
AcDbEntity
  8
Layer_1
 62
7
100
AcDbSpline
 70
8
 71
3
 72
8
 73
4
 74
0
 40
0
 40
0
 40
0
 40
0
 40
1
 40
1
 40
1
 40
1
 10
106.457542
 20
286.877632
 30
0.0
 10
106.998993
 20
286.565025
 30
0.0
 10
107.332540
 20
285.987303
 30
0.0
 10
107.332540
 20
285.362088
 30
0.0
  0
SPLINE
  5
149
100
AcDbEntity
  8
Layer_1
 62
7
100
AcDbSpline
 70
8
 71
3
 72
8
 73
4
 74
0
 40
0
 40
0
 40
0
 40
0
 40
1
 40
1
 40
1
 40
1
 10
96.466084
 20
285.362088
 30
0.0
 10
96.466084
 20
284.736873
 30
0.0
 10
96.132537
 20
284.159151
 30
0.0
 10
95.591083
 20
283.846544
 30
0.0
  0
SPLINE
  5
14a
100
AcDbEntity
  8
Layer_1
 62
7
100
AcDbSpline
 70
8
 71
3
 72
8
 73
4
 74
0
 40
0
 40
0
 40
0
 40
0
 40
1
 40
1
 40
1
 40
1
 10
95.591083
 20
283.846544
 30
0.0
 10
95.049632
 20
283.533936
 30
0.0
 10
94.382535
 20
283.533936
 30
0.0
 10
93.841084
 20
283.846544
 30
0.0
  0
SPLINE
  5
14b
100
AcDbEntity
  8
Layer_1
 62
7
100
AcDbSpline
 70
8
 71
3
 72
8
 73
4
 74
0
 40
0
 40
0
 40
0
 40
0
 40
1
 40
1
 40
1
 40
1
 10
93.841084
 20
283.846544
 30
0.0
 10
93.299633
 20
284.159151
 30
0.0
 10
92.966083
 20
284.736873
 30
0.0
 10
92.966083
 20
285.362088
 30
0.0
  0
SPLINE
  5
14c
100
AcDbEntity
  8
Layer_1
 62
7
100
AcDbSpline
 70
8
 71
3
 72
8
 73
4
 74
0
 40
0
 40
0
 40
0
 40
0
 40
1
 40
1
 40
1
 40
1
 10
92.966083
 20
285.362088
 30
0.0
 10
92.966083
 20
285.987303
 30
0.0
 10
93.299633
 20
286.565025
 30
0.0
 10
93.841084
 20
286.877632
 30
0.0
  0
SPLINE
  5
14d
100
AcDbEntity
  8
Layer_1
 62
7
100
AcDbSpline
 70
8
 71
3
 72
8
 73
4
 74
0
 40
0
 40
0
 40
0
 40
0
 40
1
 40
1
 40
1
 40
1
 10
93.841084
 20
286.877632
 30
0.0
 10
94.382535
 20
287.190240
 30
0.0
 10
95.049632
 20
287.190240
 30
0.0
 10
95.591083
 20
286.877632
 30
0.0
  0
SPLINE
  5
14e
100
AcDbEntity
  8
Layer_1
 62
7
100
AcDbSpline
 70
8
 71
3
 72
8
 73
4
 74
0
 40
0
 40
0
 40
0
 40
0
 40
1
 40
1
 40
1
 40
1
 10
95.591083
 20
286.877632
 30
0.0
 10
96.132537
 20
286.565025
 30
0.0
 10
96.466084
 20
285.987303
 30
0.0
 10
96.466084
 20
285.362088
 30
0.0
  0
SPLINE
  5
14f
100
AcDbEntity
  8
Layer_1
 62
7
100
AcDbSpline
 70
8
 71
3
 72
8
 73
4
 74
0
 40
0
 40
0
 40
0
 40
0
 40
1
 40
1
 40
1
 40
1
 10
84.617800
 20
285.362088
 30
0.0
 10
84.617800
 20
284.736873
 30
0.0
 10
84.284253
 20
284.159151
 30
0.0
 10
83.742801
 20
283.846544
 30
0.0
  0
SPLINE
  5
150
100
AcDbEntity
  8
Layer_1
 62
7
100
AcDbSpline
 70
8
 71
3
 72
8
 73
4
 74
0
 40
0
 40
0
 40
0
 40
0
 40
1
 40
1
 40
1
 40
1
 10
83.742801
 20
283.846544
 30
0.0
 10
83.201347
 20
283.533936
 30
0.0
 10
82.534253
 20
283.533936
 30
0.0
 10
81.992800
 20
283.846544
 30
0.0
  0
SPLINE
  5
151
100
AcDbEntity
  8
Layer_1
 62
7
100
AcDbSpline
 70
8
 71
3
 72
8
 73
4
 74
0
 40
0
 40
0
 40
0
 40
0
 40
1
 40
1
 40
1
 40
1
 10
81.992800
 20
283.846544
 30
0.0
 10
81.451348
 20
284.159151
 30
0.0
 10
81.117801
 20
284.736873
 30
0.0
 10
81.117801
 20
285.362088
 30
0.0
  0
SPLINE
  5
152
100
AcDbEntity
  8
Layer_1
 62
7
100
AcDbSpline
 70
8
 71
3
 72
8
 73
4
 74
0
 40
0
 40
0
 40
0
 40
0
 40
1
 40
1
 40
1
 40
1
 10
81.117801
 20
285.362088
 30
0.0
 10
81.117801
 20
285.987303
 30
0.0
 10
81.451348
 20
286.565025
 30
0.0
 10
81.992800
 20
286.877632
 30
0.0
  0
SPLINE
  5
153
100
AcDbEntity
  8
Layer_1
 62
7
100
AcDbSpline
 70
8
 71
3
 72
8
 73
4
 74
0
 40
0
 40
0
 40
0
 40
0
 40
1
 40
1
 40
1
 40
1
 10
81.992800
 20
286.877632
 30
0.0
 10
82.534253
 20
287.190240
 30
0.0
 10
83.201347
 20
287.190240
 30
0.0
 10
83.742801
 20
286.877632
 30
0.0
  0
SPLINE
  5
154
100
AcDbEntity
  8
Layer_1
 62
7
100
AcDbSpline
 70
8
 71
3
 72
8
 73
4
 74
0
 40
0
 40
0
 40
0
 40
0
 40
1
 40
1
 40
1
 40
1
 10
83.742801
 20
286.877632
 30
0.0
 10
84.284253
 20
286.565025
 30
0.0
 10
84.617800
 20
285.987303
 30
0.0
 10
84.617800
 20
285.362088
 30
0.0
  0
SPLINE
  5
155
100
AcDbEntity
  8
Layer_1
 62
7
100
AcDbSpline
 70
8
 71
3
 72
8
 73
4
 74
0
 40
0
 40
0
 40
0
 40
0
 40
1
 40
1
 40
1
 40
1
 10
72.524071
 20
285.362088
 30
0.0
 10
72.524071
 20
284.736873
 30
0.0
 10
72.190524
 20
284.159151
 30
0.0
 10
71.649073
 20
283.846544
 30
0.0
  0
SPLINE
  5
156
100
AcDbEntity
  8
Layer_1
 62
7
100
AcDbSpline
 70
8
 71
3
 72
8
 73
4
 74
0
 40
0
 40
0
 40
0
 40
0
 40
1
 40
1
 40
1
 40
1
 10
71.649073
 20
283.846544
 30
0.0
 10
71.107619
 20
283.533936
 30
0.0
 10
70.440525
 20
283.533936
 30
0.0
 10
69.899071
 20
283.846544
 30
0.0
  0
SPLINE
  5
157
100
AcDbEntity
  8
Layer_1
 62
7
100
AcDbSpline
 70
8
 71
3
 72
8
 73
4
 74
0
 40
0
 40
0
 40
0
 40
0
 40
1
 40
1
 40
1
 40
1
 10
69.899071
 20
283.846544
 30
0.0
 10
69.357620
 20
284.159151
 30
0.0
 10
69.024073
 20
284.736873
 30
0.0
 10
69.024073
 20
285.362088
 30
0.0
  0
SPLINE
  5
158
100
AcDbEntity
  8
Layer_1
 62
7
100
AcDbSpline
 70
8
 71
3
 72
8
 73
4
 74
0
 40
0
 40
0
 40
0
 40
0
 40
1
 40
1
 40
1
 40
1
 10
69.024073
 20
285.362088
 30
0.0
 10
69.024073
 20
285.987303
 30
0.0
 10
69.357620
 20
286.565025
 30
0.0
 10
69.899071
 20
286.877632
 30
0.0
  0
SPLINE
  5
159
100
AcDbEntity
  8
Layer_1
 62
7
100
AcDbSpline
 70
8
 71
3
 72
8
 73
4
 74
0
 40
0
 40
0
 40
0
 40
0
 40
1
 40
1
 40
1
 40
1
 10
69.899071
 20
286.877632
 30
0.0
 10
70.440525
 20
287.190240
 30
0.0
 10
71.107619
 20
287.190240
 30
0.0
 10
71.649073
 20
286.877632
 30
0.0
  0
SPLINE
  5
15a
100
AcDbEntity
  8
Layer_1
 62
7
100
AcDbSpline
 70
8
 71
3
 72
8
 73
4
 74
0
 40
0
 40
0
 40
0
 40
0
 40
1
 40
1
 40
1
 40
1
 10
71.649073
 20
286.877632
 30
0.0
 10
72.190524
 20
286.565025
 30
0.0
 10
72.524071
 20
285.987303
 30
0.0
 10
72.524071
 20
285.362088
 30
0.0
  0
SPLINE
  5
15b
100
AcDbEntity
  8
Layer_1
 62
7
100
AcDbSpline
 70
8
 71
3
 72
8
 73
4
 74
0
 40
0
 40
0
 40
0
 40
0
 40
1
 40
1
 40
1
 40
1
 10
62.639426
 20
285.362088
 30
0.0
 10
62.639426
 20
284.736873
 30
0.0
 10
62.305876
 20
284.159151
 30
0.0
 10
61.764425
 20
283.846544
 30
0.0
  0
SPLINE
  5
15c
100
AcDbEntity
  8
Layer_1
 62
7
100
AcDbSpline
 70
8
 71
3
 72
8
 73
4
 74
0
 40
0
 40
0
 40
0
 40
0
 40
1
 40
1
 40
1
 40
1
 10
61.764425
 20
283.846544
 30
0.0
 10
61.222973
 20
283.533936
 30
0.0
 10
60.555877
 20
283.533936
 30
0.0
 10
60.014425
 20
283.846544
 30
0.0
  0
SPLINE
  5
15d
100
AcDbEntity
  8
Layer_1
 62
7
100
AcDbSpline
 70
8
 71
3
 72
8
 73
4
 74
0
 40
0
 40
0
 40
0
 40
0
 40
1
 40
1
 40
1
 40
1
 10
60.014425
 20
283.846544
 30
0.0
 10
59.472974
 20
284.159151
 30
0.0
 10
59.139425
 20
284.736873
 30
0.0
 10
59.139425
 20
285.362088
 30
0.0
  0
SPLINE
  5
15e
100
AcDbEntity
  8
Layer_1
 62
7
100
AcDbSpline
 70
8
 71
3
 72
8
 73
4
 74
0
 40
0
 40
0
 40
0
 40
0
 40
1
 40
1
 40
1
 40
1
 10
59.139425
 20
285.362088
 30
0.0
 10
59.139425
 20
285.987303
 30
0.0
 10
59.472974
 20
286.565025
 30
0.0
 10
60.014425
 20
286.877632
 30
0.0
  0
SPLINE
  5
15f
100
AcDbEntity
  8
Layer_1
 62
7
100
AcDbSpline
 70
8
 71
3
 72
8
 73
4
 74
0
 40
0
 40
0
 40
0
 40
0
 40
1
 40
1
 40
1
 40
1
 10
60.014425
 20
286.877632
 30
0.0
 10
60.555877
 20
287.190240
 30
0.0
 10
61.222973
 20
287.190240
 30
0.0
 10
61.764425
 20
286.877632
 30
0.0
  0
SPLINE
  5
160
100
AcDbEntity
  8
Layer_1
 62
7
100
AcDbSpline
 70
8
 71
3
 72
8
 73
4
 74
0
 40
0
 40
0
 40
0
 40
0
 40
1
 40
1
 40
1
 40
1
 10
61.764425
 20
286.877632
 30
0.0
 10
62.305876
 20
286.565025
 30
0.0
 10
62.639426
 20
285.987303
 30
0.0
 10
62.639426
 20
285.362088
 30
0.0
  0
SPLINE
  5
161
100
AcDbEntity
  8
Layer_1
 62
7
100
AcDbSpline
 70
8
 71
3
 72
8
 73
4
 74
0
 40
0
 40
0
 40
0
 40
0
 40
1
 40
1
 40
1
 40
1
 10
51.890078
 20
285.362088
 30
0.0
 10
51.890078
 20
284.199496
 30
0.0
 10
51.269864
 20
283.125217
 30
0.0
 10
50.263063
 20
282.543922
 30
0.0
  0
SPLINE
  5
162
100
AcDbEntity
  8
Layer_1
 62
7
100
AcDbSpline
 70
8
 71
3
 72
8
 73
4
 74
0
 40
0
 40
0
 40
0
 40
0
 40
1
 40
1
 40
1
 40
1
 10
50.263063
 20
282.543922
 30
0.0
 10
49.256257
 20
281.962625
 30
0.0
 10
48.015830
 20
281.962625
 30
0.0
 10
47.009024
 20
282.543922
 30
0.0
  0
SPLINE
  5
163
100
AcDbEntity
  8
Layer_1
 62
7
100
AcDbSpline
 70
8
 71
3
 72
8
 73
4
 74
0
 40
0
 40
0
 40
0
 40
0
 40
1
 40
1
 40
1
 40
1
 10
47.009024
 20
282.543922
 30
0.0
 10
46.002224
 20
283.125217
 30
0.0
 10
45.382010
 20
284.199496
 30
0.0
 10
45.382010
 20
285.362088
 30
0.0
  0
SPLINE
  5
164
100
AcDbEntity
  8
Layer_1
 62
7
100
AcDbSpline
 70
8
 71
3
 72
8
 73
4
 74
0
 40
0
 40
0
 40
0
 40
0
 40
1
 40
1
 40
1
 40
1
 10
45.382010
 20
285.362088
 30
0.0
 10
45.382010
 20
286.524680
 30
0.0
 10
46.002224
 20
287.598960
 30
0.0
 10
47.009024
 20
288.180254
 30
0.0
  0
SPLINE
  5
165
100
AcDbEntity
  8
Layer_1
 62
7
100
AcDbSpline
 70
8
 71
3
 72
8
 73
4
 74
0
 40
0
 40
0
 40
0
 40
0
 40
1
 40
1
 40
1
 40
1
 10
47.009024
 20
288.180254
 30
0.0
 10
48.015830
 20
288.761552
 30
0.0
 10
49.256257
 20
288.761552
 30
0.0
 10
50.263063
 20
288.180254
 30
0.0
  0
SPLINE
  5
166
100
AcDbEntity
  8
Layer_1
 62
7
100
AcDbSpline
 70
8
 71
3
 72
8
 73
4
 74
0
 40
0
 40
0
 40
0
 40
0
 40
1
 40
1
 40
1
 40
1
 10
50.263063
 20
288.180254
 30
0.0
 10
51.269864
 20
287.598960
 30
0.0
 10
51.890078
 20
286.524680
 30
0.0
 10
51.890078
 20
285.362088
 30
0.0
  0
SPLINE
  5
167
100
AcDbEntity
  8
Layer_1
 62
7
100
AcDbSpline
 70
8
 71
3
 72
8
 73
4
 74
0
 40
0
 40
0
 40
0
 40
0
 40
1
 40
1
 40
1
 40
1
 10
27.626130
 20
285.362088
 30
0.0
 10
27.626130
 20
283.535324
 30
0.0
 10
26.652186
 20
281.847323
 30
0.0
 10
25.071173
 20
280.933941
 30
0.0
  0
SPLINE
  5
168
100
AcDbEntity
  8
Layer_1
 62
7
100
AcDbSpline
 70
8
 71
3
 72
8
 73
4
 74
0
 40
0
 40
0
 40
0
 40
0
 40
1
 40
1
 40
1
 40
1
 10
25.071173
 20
280.933941
 30
0.0
 10
23.490159
 20
280.020559
 30
0.0
 10
21.542270
 20
280.020559
 30
0.0
 10
19.961256
 20
280.933941
 30
0.0
  0
SPLINE
  5
169
100
AcDbEntity
  8
Layer_1
 62
7
100
AcDbSpline
 70
8
 71
3
 72
8
 73
4
 74
0
 40
0
 40
0
 40
0
 40
0
 40
1
 40
1
 40
1
 40
1
 10
19.961256
 20
280.933941
 30
0.0
 10
18.380242
 20
281.847323
 30
0.0
 10
17.406298
 20
283.535324
 30
0.0
 10
17.406298
 20
285.362088
 30
0.0
  0
SPLINE
  5
16a
100
AcDbEntity
  8
Layer_1
 62
7
100
AcDbSpline
 70
8
 71
3
 72
8
 73
4
 74
0
 40
0
 40
0
 40
0
 40
0
 40
1
 40
1
 40
1
 40
1
 10
17.406298
 20
285.362088
 30
0.0
 10
17.406298
 20
287.188853
 30
0.0
 10
18.380242
 20
288.876853
 30
0.0
 10
19.961256
 20
289.790235
 30
0.0
  0
SPLINE
  5
16b
100
AcDbEntity
  8
Layer_1
 62
7
100
AcDbSpline
 70
8
 71
3
 72
8
 73
4
 74
0
 40
0
 40
0
 40
0
 40
0
 40
1
 40
1
 40
1
 40
1
 10
19.961256
 20
289.790235
 30
0.0
 10
21.542270
 20
290.703618
 30
0.0
 10
23.490159
 20
290.703618
 30
0.0
 10
25.071173
 20
289.790235
 30
0.0
  0
SPLINE
  5
16c
100
AcDbEntity
  8
Layer_1
 62
7
100
AcDbSpline
 70
8
 71
3
 72
8
 73
4
 74
0
 40
0
 40
0
 40
0
 40
0
 40
1
 40
1
 40
1
 40
1
 10
25.071173
 20
289.790235
 30
0.0
 10
26.652186
 20
288.876853
 30
0.0
 10
27.626130
 20
287.188853
 30
0.0
 10
27.626130
 20
285.362088
 30
0.0
  0
SPLINE
  5
16d
100
AcDbEntity
  8
Layer_1
 62
7
100
AcDbSpline
 70
8
 71
3
 72
8
 73
4
 74
0
 40
0
 40
0
 40
0
 40
0
 40
1
 40
1
 40
1
 40
1
 10
39.661148
 20
285.362088
 30
0.0
 10
39.661148
 20
284.022342
 30
0.0
 10
38.946400
 20
282.784366
 30
0.0
 10
37.786146
 20
282.114493
 30
0.0
  0
SPLINE
  5
16e
100
AcDbEntity
  8
Layer_1
 62
7
100
AcDbSpline
 70
8
 71
3
 72
8
 73
4
 74
0
 40
0
 40
0
 40
0
 40
0
 40
1
 40
1
 40
1
 40
1
 10
37.786146
 20
282.114493
 30
0.0
 10
36.625893
 20
281.444620
 30
0.0
 10
35.196402
 20
281.444620
 30
0.0
 10
34.036146
 20
282.114493
 30
0.0
  0
SPLINE
  5
16f
100
AcDbEntity
  8
Layer_1
 62
7
100
AcDbSpline
 70
8
 71
3
 72
8
 73
4
 74
0
 40
0
 40
0
 40
0
 40
0
 40
1
 40
1
 40
1
 40
1
 10
34.036146
 20
282.114493
 30
0.0
 10
32.875890
 20
282.784366
 30
0.0
 10
32.161147
 20
284.022342
 30
0.0
 10
32.161147
 20
285.362088
 30
0.0
  0
SPLINE
  5
170
100
AcDbEntity
  8
Layer_1
 62
7
100
AcDbSpline
 70
8
 71
3
 72
8
 73
4
 74
0
 40
0
 40
0
 40
0
 40
0
 40
1
 40
1
 40
1
 40
1
 10
32.161147
 20
285.362088
 30
0.0
 10
32.161147
 20
286.701834
 30
0.0
 10
32.875890
 20
287.939810
 30
0.0
 10
34.036146
 20
288.609683
 30
0.0
  0
SPLINE
  5
171
100
AcDbEntity
  8
Layer_1
 62
7
100
AcDbSpline
 70
8
 71
3
 72
8
 73
4
 74
0
 40
0
 40
0
 40
0
 40
0
 40
1
 40
1
 40
1
 40
1
 10
34.036146
 20
288.609683
 30
0.0
 10
35.196402
 20
289.279556
 30
0.0
 10
36.625893
 20
289.279556
 30
0.0
 10
37.786146
 20
288.609683
 30
0.0
  0
SPLINE
  5
172
100
AcDbEntity
  8
Layer_1
 62
7
100
AcDbSpline
 70
8
 71
3
 72
8
 73
4
 74
0
 40
0
 40
0
 40
0
 40
0
 40
1
 40
1
 40
1
 40
1
 10
37.786146
 20
288.609683
 30
0.0
 10
38.946400
 20
287.939810
 30
0.0
 10
39.661148
 20
286.701834
 30
0.0
 10
39.661148
 20
285.362088
 30
0.0
  0
SPLINE
  5
173
100
AcDbEntity
  8
Layer_1
 62
7
100
AcDbSpline
 70
8
 71
3
 72
8
 73
4
 74
0
 40
0
 40
0
 40
0
 40
0
 40
1
 40
1
 40
1
 40
1
 10
131.821722
 20
285.362088
 30
0.0
 10
131.821722
 20
284.736873
 30
0.0
 10
131.488176
 20
284.159151
 30
0.0
 10
130.946724
 20
283.846544
 30
0.0
  0
SPLINE
  5
174
100
AcDbEntity
  8
Layer_1
 62
7
100
AcDbSpline
 70
8
 71
3
 72
8
 73
4
 74
0
 40
0
 40
0
 40
0
 40
0
 40
1
 40
1
 40
1
 40
1
 10
130.946724
 20
283.846544
 30
0.0
 10
130.405273
 20
283.533936
 30
0.0
 10
129.738176
 20
283.533936
 30
0.0
 10
129.196722
 20
283.846544
 30
0.0
  0
SPLINE
  5
175
100
AcDbEntity
  8
Layer_1
 62
7
100
AcDbSpline
 70
8
 71
3
 72
8
 73
4
 74
0
 40
0
 40
0
 40
0
 40
0
 40
1
 40
1
 40
1
 40
1
 10
129.196722
 20
283.846544
 30
0.0
 10
128.655271
 20
284.159151
 30
0.0
 10
128.321724
 20
284.736873
 30
0.0
 10
128.321724
 20
285.362088
 30
0.0
  0
SPLINE
  5
176
100
AcDbEntity
  8
Layer_1
 62
7
100
AcDbSpline
 70
8
 71
3
 72
8
 73
4
 74
0
 40
0
 40
0
 40
0
 40
0
 40
1
 40
1
 40
1
 40
1
 10
128.321724
 20
285.362088
 30
0.0
 10
128.321724
 20
285.987303
 30
0.0
 10
128.655271
 20
286.565025
 30
0.0
 10
129.196722
 20
286.877632
 30
0.0
  0
SPLINE
  5
177
100
AcDbEntity
  8
Layer_1
 62
7
100
AcDbSpline
 70
8
 71
3
 72
8
 73
4
 74
0
 40
0
 40
0
 40
0
 40
0
 40
1
 40
1
 40
1
 40
1
 10
129.196722
 20
286.877632
 30
0.0
 10
129.738176
 20
287.190240
 30
0.0
 10
130.405273
 20
287.190240
 30
0.0
 10
130.946724
 20
286.877632
 30
0.0
  0
SPLINE
  5
178
100
AcDbEntity
  8
Layer_1
 62
7
100
AcDbSpline
 70
8
 71
3
 72
8
 73
4
 74
0
 40
0
 40
0
 40
0
 40
0
 40
1
 40
1
 40
1
 40
1
 10
130.946724
 20
286.877632
 30
0.0
 10
131.488176
 20
286.565025
 30
0.0
 10
131.821722
 20
285.987303
 30
0.0
 10
131.821722
 20
285.362088
 30
0.0
  0
SPLINE
  5
179
100
AcDbEntity
  8
Layer_1
 62
7
100
AcDbSpline
 70
8
 71
3
 72
8
 73
4
 74
0
 40
0
 40
0
 40
0
 40
0
 40
1
 40
1
 40
1
 40
1
 10
144.375850
 20
285.362088
 30
0.0
 10
144.375850
 20
284.736873
 30
0.0
 10
144.042303
 20
284.159151
 30
0.0
 10
143.500852
 20
283.846544
 30
0.0
  0
SPLINE
  5
17a
100
AcDbEntity
  8
Layer_1
 62
7
100
AcDbSpline
 70
8
 71
3
 72
8
 73
4
 74
0
 40
0
 40
0
 40
0
 40
0
 40
1
 40
1
 40
1
 40
1
 10
143.500852
 20
283.846544
 30
0.0
 10
142.959400
 20
283.533936
 30
0.0
 10
142.292304
 20
283.533936
 30
0.0
 10
141.750850
 20
283.846544
 30
0.0
  0
SPLINE
  5
17b
100
AcDbEntity
  8
Layer_1
 62
7
100
AcDbSpline
 70
8
 71
3
 72
8
 73
4
 74
0
 40
0
 40
0
 40
0
 40
0
 40
1
 40
1
 40
1
 40
1
 10
141.750850
 20
283.846544
 30
0.0
 10
141.209399
 20
284.159151
 30
0.0
 10
140.875852
 20
284.736873
 30
0.0
 10
140.875852
 20
285.362088
 30
0.0
  0
SPLINE
  5
17c
100
AcDbEntity
  8
Layer_1
 62
7
100
AcDbSpline
 70
8
 71
3
 72
8
 73
4
 74
0
 40
0
 40
0
 40
0
 40
0
 40
1
 40
1
 40
1
 40
1
 10
140.875852
 20
285.362088
 30
0.0
 10
140.875852
 20
285.987303
 30
0.0
 10
141.209399
 20
286.565025
 30
0.0
 10
141.750850
 20
286.877632
 30
0.0
  0
SPLINE
  5
17d
100
AcDbEntity
  8
Layer_1
 62
7
100
AcDbSpline
 70
8
 71
3
 72
8
 73
4
 74
0
 40
0
 40
0
 40
0
 40
0
 40
1
 40
1
 40
1
 40
1
 10
141.750850
 20
286.877632
 30
0.0
 10
142.292304
 20
287.190240
 30
0.0
 10
142.959400
 20
287.190240
 30
0.0
 10
143.500852
 20
286.877632
 30
0.0
  0
SPLINE
  5
17e
100
AcDbEntity
  8
Layer_1
 62
7
100
AcDbSpline
 70
8
 71
3
 72
8
 73
4
 74
0
 40
0
 40
0
 40
0
 40
0
 40
1
 40
1
 40
1
 40
1
 10
143.500852
 20
286.877632
 30
0.0
 10
144.042303
 20
286.565025
 30
0.0
 10
144.375850
 20
285.987303
 30
0.0
 10
144.375850
 20
285.362088
 30
0.0
  0
SPLINE
  5
17f
100
AcDbEntity
  8
Layer_1
 62
7
100
AcDbSpline
 70
8
 71
3
 72
8
 73
4
 74
0
 40
0
 40
0
 40
0
 40
0
 40
1
 40
1
 40
1
 40
1
 10
13.779873
 20
264.406072
 30
0.0
 10
13.779873
 20
261.555128
 30
0.0
 10
11.469991
 20
259.243982
 30
0.0
 10
8.620606
 20
259.243982
 30
0.0
  0
SPLINE
  5
180
100
AcDbEntity
  8
Layer_1
 62
7
100
AcDbSpline
 70
8
 71
3
 72
8
 73
4
 74
0
 40
0
 40
0
 40
0
 40
0
 40
1
 40
1
 40
1
 40
1
 10
8.620606
 20
259.243982
 30
0.0
 10
5.771222
 20
259.243982
 30
0.0
 10
3.461340
 20
261.555128
 30
0.0
 10
3.461340
 20
264.406072
 30
0.0
  0
SPLINE
  5
181
100
AcDbEntity
  8
Layer_1
 62
7
100
AcDbSpline
 70
8
 71
3
 72
8
 73
4
 74
0
 40
0
 40
0
 40
0
 40
0
 40
1
 40
1
 40
1
 40
1
 10
3.461340
 20
264.406072
 30
0.0
 10
3.461340
 20
266.250309
 30
0.0
 10
4.444691
 20
267.954454
 30
0.0
 10
6.040973
 20
268.876572
 30
0.0
  0
SPLINE
  5
182
100
AcDbEntity
  8
Layer_1
 62
7
100
AcDbSpline
 70
8
 71
3
 72
8
 73
4
 74
0
 40
0
 40
0
 40
0
 40
0
 40
1
 40
1
 40
1
 40
1
 10
6.040973
 20
268.876572
 30
0.0
 10
7.637256
 20
269.798690
 30
0.0
 10
9.603956
 20
269.798690
 30
0.0
 10
11.200240
 20
268.876572
 30
0.0
  0
SPLINE
  5
183
100
AcDbEntity
  8
Layer_1
 62
7
100
AcDbSpline
 70
8
 71
3
 72
8
 73
4
 74
0
 40
0
 40
0
 40
0
 40
0
 40
1
 40
1
 40
1
 40
1
 10
11.200240
 20
268.876572
 30
0.0
 10
12.796522
 20
267.954454
 30
0.0
 10
13.779873
 20
266.250309
 30
0.0
 10
13.779873
 20
264.406072
 30
0.0
  0
SPLINE
  5
184
100
AcDbEntity
  8
Layer_1
 62
7
100
AcDbSpline
 70
8
 71
3
 72
8
 73
4
 74
0
 40
0
 40
0
 40
0
 40
0
 40
1
 40
1
 40
1
 40
1
 10
118.935359
 20
264.406028
 30
0.0
 10
118.935359
 20
263.780813
 30
0.0
 10
118.601812
 20
263.203091
 30
0.0
 10
118.060361
 20
262.890484
 30
0.0
  0
SPLINE
  5
185
100
AcDbEntity
  8
Layer_1
 62
7
100
AcDbSpline
 70
8
 71
3
 72
8
 73
4
 74
0
 40
0
 40
0
 40
0
 40
0
 40
1
 40
1
 40
1
 40
1
 10
118.060361
 20
262.890484
 30
0.0
 10
117.518910
 20
262.577876
 30
0.0
 10
116.851813
 20
262.577876
 30
0.0
 10
116.310359
 20
262.890484
 30
0.0
  0
SPLINE
  5
186
100
AcDbEntity
  8
Layer_1
 62
7
100
AcDbSpline
 70
8
 71
3
 72
8
 73
4
 74
0
 40
0
 40
0
 40
0
 40
0
 40
1
 40
1
 40
1
 40
1
 10
116.310359
 20
262.890484
 30
0.0
 10
115.768908
 20
263.203091
 30
0.0
 10
115.435361
 20
263.780813
 30
0.0
 10
115.435361
 20
264.406028
 30
0.0
  0
SPLINE
  5
187
100
AcDbEntity
  8
Layer_1
 62
7
100
AcDbSpline
 70
8
 71
3
 72
8
 73
4
 74
0
 40
0
 40
0
 40
0
 40
0
 40
1
 40
1
 40
1
 40
1
 10
115.435361
 20
264.406028
 30
0.0
 10
115.435361
 20
265.031243
 30
0.0
 10
115.768908
 20
265.608965
 30
0.0
 10
116.310359
 20
265.921572
 30
0.0
  0
SPLINE
  5
188
100
AcDbEntity
  8
Layer_1
 62
7
100
AcDbSpline
 70
8
 71
3
 72
8
 73
4
 74
0
 40
0
 40
0
 40
0
 40
0
 40
1
 40
1
 40
1
 40
1
 10
116.310359
 20
265.921572
 30
0.0
 10
116.851813
 20
266.234180
 30
0.0
 10
117.518910
 20
266.234180
 30
0.0
 10
118.060361
 20
265.921572
 30
0.0
  0
SPLINE
  5
189
100
AcDbEntity
  8
Layer_1
 62
7
100
AcDbSpline
 70
8
 71
3
 72
8
 73
4
 74
0
 40
0
 40
0
 40
0
 40
0
 40
1
 40
1
 40
1
 40
1
 10
118.060361
 20
265.921572
 30
0.0
 10
118.601812
 20
265.608965
 30
0.0
 10
118.935359
 20
265.031243
 30
0.0
 10
118.935359
 20
264.406028
 30
0.0
  0
SPLINE
  5
18a
100
AcDbEntity
  8
Layer_1
 62
7
100
AcDbSpline
 70
8
 71
3
 72
8
 73
4
 74
0
 40
0
 40
0
 40
0
 40
0
 40
1
 40
1
 40
1
 40
1
 10
107.087085
 20
264.406028
 30
0.0
 10
107.087085
 20
263.780813
 30
0.0
 10
106.753538
 20
263.203091
 30
0.0
 10
106.212087
 20
262.890484
 30
0.0
  0
SPLINE
  5
18b
100
AcDbEntity
  8
Layer_1
 62
7
100
AcDbSpline
 70
8
 71
3
 72
8
 73
4
 74
0
 40
0
 40
0
 40
0
 40
0
 40
1
 40
1
 40
1
 40
1
 10
106.212087
 20
262.890484
 30
0.0
 10
105.670633
 20
262.577876
 30
0.0
 10
105.003539
 20
262.577876
 30
0.0
 10
104.462085
 20
262.890484
 30
0.0
  0
SPLINE
  5
18c
100
AcDbEntity
  8
Layer_1
 62
7
100
AcDbSpline
 70
8
 71
3
 72
8
 73
4
 74
0
 40
0
 40
0
 40
0
 40
0
 40
1
 40
1
 40
1
 40
1
 10
104.462085
 20
262.890484
 30
0.0
 10
103.920634
 20
263.203091
 30
0.0
 10
103.587087
 20
263.780813
 30
0.0
 10
103.587087
 20
264.406028
 30
0.0
  0
SPLINE
  5
18d
100
AcDbEntity
  8
Layer_1
 62
7
100
AcDbSpline
 70
8
 71
3
 72
8
 73
4
 74
0
 40
0
 40
0
 40
0
 40
0
 40
1
 40
1
 40
1
 40
1
 10
103.587087
 20
264.406028
 30
0.0
 10
103.587087
 20
265.031243
 30
0.0
 10
103.920634
 20
265.608965
 30
0.0
 10
104.462085
 20
265.921572
 30
0.0
  0
SPLINE
  5
18e
100
AcDbEntity
  8
Layer_1
 62
7
100
AcDbSpline
 70
8
 71
3
 72
8
 73
4
 74
0
 40
0
 40
0
 40
0
 40
0
 40
1
 40
1
 40
1
 40
1
 10
104.462085
 20
265.921572
 30
0.0
 10
105.003539
 20
266.234180
 30
0.0
 10
105.670633
 20
266.234180
 30
0.0
 10
106.212087
 20
265.921572
 30
0.0
  0
SPLINE
  5
18f
100
AcDbEntity
  8
Layer_1
 62
7
100
AcDbSpline
 70
8
 71
3
 72
8
 73
4
 74
0
 40
0
 40
0
 40
0
 40
0
 40
1
 40
1
 40
1
 40
1
 10
106.212087
 20
265.921572
 30
0.0
 10
106.753538
 20
265.608965
 30
0.0
 10
107.087085
 20
265.031243
 30
0.0
 10
107.087085
 20
264.406028
 30
0.0
  0
SPLINE
  5
190
100
AcDbEntity
  8
Layer_1
 62
7
100
AcDbSpline
 70
8
 71
3
 72
8
 73
4
 74
0
 40
0
 40
0
 40
0
 40
0
 40
1
 40
1
 40
1
 40
1
 10
96.220630
 20
264.406028
 30
0.0
 10
96.220630
 20
263.780813
 30
0.0
 10
95.887083
 20
263.203091
 30
0.0
 10
95.345629
 20
262.890484
 30
0.0
  0
SPLINE
  5
191
100
AcDbEntity
  8
Layer_1
 62
7
100
AcDbSpline
 70
8
 71
3
 72
8
 73
4
 74
0
 40
0
 40
0
 40
0
 40
0
 40
1
 40
1
 40
1
 40
1
 10
95.345629
 20
262.890484
 30
0.0
 10
94.804177
 20
262.577876
 30
0.0
 10
94.137081
 20
262.577876
 30
0.0
 10
93.595629
 20
262.890484
 30
0.0
  0
SPLINE
  5
192
100
AcDbEntity
  8
Layer_1
 62
7
100
AcDbSpline
 70
8
 71
3
 72
8
 73
4
 74
0
 40
0
 40
0
 40
0
 40
0
 40
1
 40
1
 40
1
 40
1
 10
93.595629
 20
262.890484
 30
0.0
 10
93.054178
 20
263.203091
 30
0.0
 10
92.720629
 20
263.780813
 30
0.0
 10
92.720629
 20
264.406028
 30
0.0
  0
SPLINE
  5
193
100
AcDbEntity
  8
Layer_1
 62
7
100
AcDbSpline
 70
8
 71
3
 72
8
 73
4
 74
0
 40
0
 40
0
 40
0
 40
0
 40
1
 40
1
 40
1
 40
1
 10
92.720629
 20
264.406028
 30
0.0
 10
92.720629
 20
265.031243
 30
0.0
 10
93.054178
 20
265.608965
 30
0.0
 10
93.595629
 20
265.921572
 30
0.0
  0
SPLINE
  5
194
100
AcDbEntity
  8
Layer_1
 62
7
100
AcDbSpline
 70
8
 71
3
 72
8
 73
4
 74
0
 40
0
 40
0
 40
0
 40
0
 40
1
 40
1
 40
1
 40
1
 10
93.595629
 20
265.921572
 30
0.0
 10
94.137081
 20
266.234180
 30
0.0
 10
94.804177
 20
266.234180
 30
0.0
 10
95.345629
 20
265.921572
 30
0.0
  0
SPLINE
  5
195
100
AcDbEntity
  8
Layer_1
 62
7
100
AcDbSpline
 70
8
 71
3
 72
8
 73
4
 74
0
 40
0
 40
0
 40
0
 40
0
 40
1
 40
1
 40
1
 40
1
 10
95.345629
 20
265.921572
 30
0.0
 10
95.887083
 20
265.608965
 30
0.0
 10
96.220630
 20
265.031243
 30
0.0
 10
96.220630
 20
264.406028
 30
0.0
  0
SPLINE
  5
196
100
AcDbEntity
  8
Layer_1
 62
7
100
AcDbSpline
 70
8
 71
3
 72
8
 73
4
 74
0
 40
0
 40
0
 40
0
 40
0
 40
1
 40
1
 40
1
 40
1
 10
84.372345
 20
264.406028
 30
0.0
 10
84.372345
 20
263.780813
 30
0.0
 10
84.038798
 20
263.203091
 30
0.0
 10
83.497347
 20
262.890484
 30
0.0
  0
SPLINE
  5
197
100
AcDbEntity
  8
Layer_1
 62
7
100
AcDbSpline
 70
8
 71
3
 72
8
 73
4
 74
0
 40
0
 40
0
 40
0
 40
0
 40
1
 40
1
 40
1
 40
1
 10
83.497347
 20
262.890484
 30
0.0
 10
82.955893
 20
262.577876
 30
0.0
 10
82.288799
 20
262.577876
 30
0.0
 10
81.747345
 20
262.890484
 30
0.0
  0
SPLINE
  5
198
100
AcDbEntity
  8
Layer_1
 62
7
100
AcDbSpline
 70
8
 71
3
 72
8
 73
4
 74
0
 40
0
 40
0
 40
0
 40
0
 40
1
 40
1
 40
1
 40
1
 10
81.747345
 20
262.890484
 30
0.0
 10
81.205894
 20
263.203091
 30
0.0
 10
80.872347
 20
263.780813
 30
0.0
 10
80.872347
 20
264.406028
 30
0.0
  0
SPLINE
  5
199
100
AcDbEntity
  8
Layer_1
 62
7
100
AcDbSpline
 70
8
 71
3
 72
8
 73
4
 74
0
 40
0
 40
0
 40
0
 40
0
 40
1
 40
1
 40
1
 40
1
 10
80.872347
 20
264.406028
 30
0.0
 10
80.872347
 20
265.031243
 30
0.0
 10
81.205894
 20
265.608965
 30
0.0
 10
81.747345
 20
265.921572
 30
0.0
  0
SPLINE
  5
19a
100
AcDbEntity
  8
Layer_1
 62
7
100
AcDbSpline
 70
8
 71
3
 72
8
 73
4
 74
0
 40
0
 40
0
 40
0
 40
0
 40
1
 40
1
 40
1
 40
1
 10
81.747345
 20
265.921572
 30
0.0
 10
82.288799
 20
266.234180
 30
0.0
 10
82.955893
 20
266.234180
 30
0.0
 10
83.497347
 20
265.921572
 30
0.0
  0
SPLINE
  5
19b
100
AcDbEntity
  8
Layer_1
 62
7
100
AcDbSpline
 70
8
 71
3
 72
8
 73
4
 74
0
 40
0
 40
0
 40
0
 40
0
 40
1
 40
1
 40
1
 40
1
 10
83.497347
 20
265.921572
 30
0.0
 10
84.038798
 20
265.608965
 30
0.0
 10
84.372345
 20
265.031243
 30
0.0
 10
84.372345
 20
264.406028
 30
0.0
  0
SPLINE
  5
19c
100
AcDbEntity
  8
Layer_1
 62
7
100
AcDbSpline
 70
8
 71
3
 72
8
 73
4
 74
0
 40
0
 40
0
 40
0
 40
0
 40
1
 40
1
 40
1
 40
1
 10
72.278617
 20
264.406028
 30
0.0
 10
72.278617
 20
263.780813
 30
0.0
 10
71.945070
 20
263.203091
 30
0.0
 10
71.403618
 20
262.890484
 30
0.0
  0
SPLINE
  5
19d
100
AcDbEntity
  8
Layer_1
 62
7
100
AcDbSpline
 70
8
 71
3
 72
8
 73
4
 74
0
 40
0
 40
0
 40
0
 40
0
 40
1
 40
1
 40
1
 40
1
 10
71.403618
 20
262.890484
 30
0.0
 10
70.862164
 20
262.577876
 30
0.0
 10
70.195070
 20
262.577876
 30
0.0
 10
69.653617
 20
262.890484
 30
0.0
  0
SPLINE
  5
19e
100
AcDbEntity
  8
Layer_1
 62
7
100
AcDbSpline
 70
8
 71
3
 72
8
 73
4
 74
0
 40
0
 40
0
 40
0
 40
0
 40
1
 40
1
 40
1
 40
1
 10
69.653617
 20
262.890484
 30
0.0
 10
69.112165
 20
263.203091
 30
0.0
 10
68.778618
 20
263.780813
 30
0.0
 10
68.778618
 20
264.406028
 30
0.0
  0
SPLINE
  5
19f
100
AcDbEntity
  8
Layer_1
 62
7
100
AcDbSpline
 70
8
 71
3
 72
8
 73
4
 74
0
 40
0
 40
0
 40
0
 40
0
 40
1
 40
1
 40
1
 40
1
 10
68.778618
 20
264.406028
 30
0.0
 10
68.778618
 20
265.031243
 30
0.0
 10
69.112165
 20
265.608965
 30
0.0
 10
69.653617
 20
265.921572
 30
0.0
  0
SPLINE
  5
1a0
100
AcDbEntity
  8
Layer_1
 62
7
100
AcDbSpline
 70
8
 71
3
 72
8
 73
4
 74
0
 40
0
 40
0
 40
0
 40
0
 40
1
 40
1
 40
1
 40
1
 10
69.653617
 20
265.921572
 30
0.0
 10
70.195070
 20
266.234180
 30
0.0
 10
70.862164
 20
266.234180
 30
0.0
 10
71.403618
 20
265.921572
 30
0.0
  0
SPLINE
  5
1a1
100
AcDbEntity
  8
Layer_1
 62
7
100
AcDbSpline
 70
8
 71
3
 72
8
 73
4
 74
0
 40
0
 40
0
 40
0
 40
0
 40
1
 40
1
 40
1
 40
1
 10
71.403618
 20
265.921572
 30
0.0
 10
71.945070
 20
265.608965
 30
0.0
 10
72.278617
 20
265.031243
 30
0.0
 10
72.278617
 20
264.406028
 30
0.0
  0
SPLINE
  5
1a2
100
AcDbEntity
  8
Layer_1
 62
7
100
AcDbSpline
 70
8
 71
3
 72
8
 73
4
 74
0
 40
0
 40
0
 40
0
 40
0
 40
1
 40
1
 40
1
 40
1
 10
62.393971
 20
264.406028
 30
0.0
 10
62.393971
 20
263.780813
 30
0.0
 10
62.060421
 20
263.203091
 30
0.0
 10
61.518970
 20
262.890484
 30
0.0
  0
SPLINE
  5
1a3
100
AcDbEntity
  8
Layer_1
 62
7
100
AcDbSpline
 70
8
 71
3
 72
8
 73
4
 74
0
 40
0
 40
0
 40
0
 40
0
 40
1
 40
1
 40
1
 40
1
 10
61.518970
 20
262.890484
 30
0.0
 10
60.977519
 20
262.577876
 30
0.0
 10
60.310422
 20
262.577876
 30
0.0
 10
59.768971
 20
262.890484
 30
0.0
  0
SPLINE
  5
1a4
100
AcDbEntity
  8
Layer_1
 62
7
100
AcDbSpline
 70
8
 71
3
 72
8
 73
4
 74
0
 40
0
 40
0
 40
0
 40
0
 40
1
 40
1
 40
1
 40
1
 10
59.768971
 20
262.890484
 30
0.0
 10
59.227520
 20
263.203091
 30
0.0
 10
58.893970
 20
263.780813
 30
0.0
 10
58.893970
 20
264.406028
 30
0.0
  0
SPLINE
  5
1a5
100
AcDbEntity
  8
Layer_1
 62
7
100
AcDbSpline
 70
8
 71
3
 72
8
 73
4
 74
0
 40
0
 40
0
 40
0
 40
0
 40
1
 40
1
 40
1
 40
1
 10
58.893970
 20
264.406028
 30
0.0
 10
58.893970
 20
265.031243
 30
0.0
 10
59.227520
 20
265.608965
 30
0.0
 10
59.768971
 20
265.921572
 30
0.0
  0
SPLINE
  5
1a6
100
AcDbEntity
  8
Layer_1
 62
7
100
AcDbSpline
 70
8
 71
3
 72
8
 73
4
 74
0
 40
0
 40
0
 40
0
 40
0
 40
1
 40
1
 40
1
 40
1
 10
59.768971
 20
265.921572
 30
0.0
 10
60.310422
 20
266.234180
 30
0.0
 10
60.977519
 20
266.234180
 30
0.0
 10
61.518970
 20
265.921572
 30
0.0
  0
SPLINE
  5
1a7
100
AcDbEntity
  8
Layer_1
 62
7
100
AcDbSpline
 70
8
 71
3
 72
8
 73
4
 74
0
 40
0
 40
0
 40
0
 40
0
 40
1
 40
1
 40
1
 40
1
 10
61.518970
 20
265.921572
 30
0.0
 10
62.060421
 20
265.608965
 30
0.0
 10
62.393971
 20
265.031243
 30
0.0
 10
62.393971
 20
264.406028
 30
0.0
  0
SPLINE
  5
1a8
100
AcDbEntity
  8
Layer_1
 62
7
100
AcDbSpline
 70
8
 71
3
 72
8
 73
4
 74
0
 40
0
 40
0
 40
0
 40
0
 40
1
 40
1
 40
1
 40
1
 10
51.644623
 20
264.406028
 30
0.0
 10
51.644623
 20
263.243436
 30
0.0
 10
51.024410
 20
262.169158
 30
0.0
 10
50.017609
 20
261.587862
 30
0.0
  0
SPLINE
  5
1a9
100
AcDbEntity
  8
Layer_1
 62
7
100
AcDbSpline
 70
8
 71
3
 72
8
 73
4
 74
0
 40
0
 40
0
 40
0
 40
0
 40
1
 40
1
 40
1
 40
1
 10
50.017609
 20
261.587862
 30
0.0
 10
49.010803
 20
261.006565
 30
0.0
 10
47.770376
 20
261.006565
 30
0.0
 10
46.763570
 20
261.587862
 30
0.0
  0
SPLINE
  5
1aa
100
AcDbEntity
  8
Layer_1
 62
7
100
AcDbSpline
 70
8
 71
3
 72
8
 73
4
 74
0
 40
0
 40
0
 40
0
 40
0
 40
1
 40
1
 40
1
 40
1
 10
46.763570
 20
261.587862
 30
0.0
 10
45.756769
 20
262.169158
 30
0.0
 10
45.136555
 20
263.243436
 30
0.0
 10
45.136555
 20
264.406028
 30
0.0
  0
SPLINE
  5
1ab
100
AcDbEntity
  8
Layer_1
 62
7
100
AcDbSpline
 70
8
 71
3
 72
8
 73
4
 74
0
 40
0
 40
0
 40
0
 40
0
 40
1
 40
1
 40
1
 40
1
 10
45.136555
 20
264.406028
 30
0.0
 10
45.136555
 20
265.568621
 30
0.0
 10
45.756769
 20
266.642900
 30
0.0
 10
46.763570
 20
267.224195
 30
0.0
  0
SPLINE
  5
1ac
100
AcDbEntity
  8
Layer_1
 62
7
100
AcDbSpline
 70
8
 71
3
 72
8
 73
4
 74
0
 40
0
 40
0
 40
0
 40
0
 40
1
 40
1
 40
1
 40
1
 10
46.763570
 20
267.224195
 30
0.0
 10
47.770376
 20
267.805492
 30
0.0
 10
49.010803
 20
267.805492
 30
0.0
 10
50.017609
 20
267.224195
 30
0.0
  0
SPLINE
  5
1ad
100
AcDbEntity
  8
Layer_1
 62
7
100
AcDbSpline
 70
8
 71
3
 72
8
 73
4
 74
0
 40
0
 40
0
 40
0
 40
0
 40
1
 40
1
 40
1
 40
1
 10
50.017609
 20
267.224195
 30
0.0
 10
51.024410
 20
266.642900
 30
0.0
 10
51.644623
 20
265.568621
 30
0.0
 10
51.644623
 20
264.406028
 30
0.0
  0
SPLINE
  5
1ae
100
AcDbEntity
  8
Layer_1
 62
7
100
AcDbSpline
 70
8
 71
3
 72
8
 73
4
 74
0
 40
0
 40
0
 40
0
 40
0
 40
1
 40
1
 40
1
 40
1
 10
27.380676
 20
264.406028
 30
0.0
 10
27.380676
 20
262.579264
 30
0.0
 10
26.406732
 20
260.891263
 30
0.0
 10
24.825718
 20
259.977881
 30
0.0
  0
SPLINE
  5
1af
100
AcDbEntity
  8
Layer_1
 62
7
100
AcDbSpline
 70
8
 71
3
 72
8
 73
4
 74
0
 40
0
 40
0
 40
0
 40
0
 40
1
 40
1
 40
1
 40
1
 10
24.825718
 20
259.977881
 30
0.0
 10
23.244705
 20
259.064499
 30
0.0
 10
21.296815
 20
259.064499
 30
0.0
 10
19.715801
 20
259.977881
 30
0.0
  0
SPLINE
  5
1b0
100
AcDbEntity
  8
Layer_1
 62
7
100
AcDbSpline
 70
8
 71
3
 72
8
 73
4
 74
0
 40
0
 40
0
 40
0
 40
0
 40
1
 40
1
 40
1
 40
1
 10
19.715801
 20
259.977881
 30
0.0
 10
18.134788
 20
260.891263
 30
0.0
 10
17.160843
 20
262.579264
 30
0.0
 10
17.160843
 20
264.406028
 30
0.0
  0
SPLINE
  5
1b1
100
AcDbEntity
  8
Layer_1
 62
7
100
AcDbSpline
 70
8
 71
3
 72
8
 73
4
 74
0
 40
0
 40
0
 40
0
 40
0
 40
1
 40
1
 40
1
 40
1
 10
17.160843
 20
264.406028
 30
0.0
 10
17.160843
 20
266.232793
 30
0.0
 10
18.134788
 20
267.920793
 30
0.0
 10
19.715801
 20
268.834175
 30
0.0
  0
SPLINE
  5
1b2
100
AcDbEntity
  8
Layer_1
 62
7
100
AcDbSpline
 70
8
 71
3
 72
8
 73
4
 74
0
 40
0
 40
0
 40
0
 40
0
 40
1
 40
1
 40
1
 40
1
 10
19.715801
 20
268.834175
 30
0.0
 10
21.296815
 20
269.747558
 30
0.0
 10
23.244705
 20
269.747558
 30
0.0
 10
24.825718
 20
268.834175
 30
0.0
  0
SPLINE
  5
1b3
100
AcDbEntity
  8
Layer_1
 62
7
100
AcDbSpline
 70
8
 71
3
 72
8
 73
4
 74
0
 40
0
 40
0
 40
0
 40
0
 40
1
 40
1
 40
1
 40
1
 10
24.825718
 20
268.834175
 30
0.0
 10
26.406732
 20
267.920793
 30
0.0
 10
27.380676
 20
266.232793
 30
0.0
 10
27.380676
 20
264.406028
 30
0.0
  0
SPLINE
  5
1b4
100
AcDbEntity
  8
Layer_1
 62
7
100
AcDbSpline
 70
8
 71
3
 72
8
 73
4
 74
0
 40
0
 40
0
 40
0
 40
0
 40
1
 40
1
 40
1
 40
1
 10
39.415693
 20
264.406028
 30
0.0
 10
39.415693
 20
263.066282
 30
0.0
 10
38.700945
 20
261.828306
 30
0.0
 10
37.540692
 20
261.158433
 30
0.0
  0
SPLINE
  5
1b5
100
AcDbEntity
  8
Layer_1
 62
7
100
AcDbSpline
 70
8
 71
3
 72
8
 73
4
 74
0
 40
0
 40
0
 40
0
 40
0
 40
1
 40
1
 40
1
 40
1
 10
37.540692
 20
261.158433
 30
0.0
 10
36.380438
 20
260.488560
 30
0.0
 10
34.950947
 20
260.488560
 30
0.0
 10
33.790691
 20
261.158433
 30
0.0
  0
SPLINE
  5
1b6
100
AcDbEntity
  8
Layer_1
 62
7
100
AcDbSpline
 70
8
 71
3
 72
8
 73
4
 74
0
 40
0
 40
0
 40
0
 40
0
 40
1
 40
1
 40
1
 40
1
 10
33.790691
 20
261.158433
 30
0.0
 10
32.630435
 20
261.828306
 30
0.0
 10
31.915692
 20
263.066282
 30
0.0
 10
31.915692
 20
264.406028
 30
0.0
  0
SPLINE
  5
1b7
100
AcDbEntity
  8
Layer_1
 62
7
100
AcDbSpline
 70
8
 71
3
 72
8
 73
4
 74
0
 40
0
 40
0
 40
0
 40
0
 40
1
 40
1
 40
1
 40
1
 10
31.915692
 20
264.406028
 30
0.0
 10
31.915692
 20
265.745774
 30
0.0
 10
32.630435
 20
266.983750
 30
0.0
 10
33.790691
 20
267.653623
 30
0.0
  0
SPLINE
  5
1b8
100
AcDbEntity
  8
Layer_1
 62
7
100
AcDbSpline
 70
8
 71
3
 72
8
 73
4
 74
0
 40
0
 40
0
 40
0
 40
0
 40
1
 40
1
 40
1
 40
1
 10
33.790691
 20
267.653623
 30
0.0
 10
34.950947
 20
268.323496
 30
0.0
 10
36.380438
 20
268.323496
 30
0.0
 10
37.540692
 20
267.653623
 30
0.0
  0
SPLINE
  5
1b9
100
AcDbEntity
  8
Layer_1
 62
7
100
AcDbSpline
 70
8
 71
3
 72
8
 73
4
 74
0
 40
0
 40
0
 40
0
 40
0
 40
1
 40
1
 40
1
 40
1
 10
37.540692
 20
267.653623
 30
0.0
 10
38.700945
 20
266.983750
 30
0.0
 10
39.415693
 20
265.745774
 30
0.0
 10
39.415693
 20
264.406028
 30
0.0
  0
LWPOLYLINE
  5
1ba
100
AcDbEntity
  8
Layer_1
 62
7
100
AcDbPolyline
 90
210
 70
1
 10
203.916849
 20
58.294102
 30
0.0
 10
205.446551
 20
58.389402
 30
0.0
 10
205.825741
 20
58.368394
 30
0.0
 10
207.763279
 20
57.839834
 30
0.0
 10
207.763279
 20
55.898774
 30
0.0
 10
205.825741
 20
55.370213
 30
0.0
 10
205.446551
 20
55.349205
 30
0.0
 10
203.916849
 20
55.444505
 30
0.0
 10
203.593150
 20
52.778627
 30
0.0
 10
205.101201
 20
52.505056
 30
0.0
 10
205.464349
 20
52.393915
 30
0.0
 10
207.219100
 20
51.417036
 30
0.0
 10
206.754571
 20
49.532367
 30
0.0
 10
204.746839
 20
49.482866
 30
0.0
 10
204.373639
 20
49.553166
 30
0.0
 10
202.911189
 20
50.011765
 30
0.0
 10
201.958919
 20
47.500817
 30
0.0
 10
203.357678
 20
46.874296
 30
0.0
 10
203.683679
 20
46.679476
 30
0.0
 10
205.153649
 20
45.311045
 30
0.0
 10
204.251589
 20
43.592315
 30
0.0
 10
202.290349
 20
44.024726
 30
0.0
 10
201.944830
 20
44.182346
 30
0.0
 10
200.634629
 20
44.977596
 30
0.0
 10
199.109110
 20
42.767505
 30
0.0
 10
200.317301
 20
41.824456
 30
0.0
 10
200.587200
 20
41.557275
 30
0.0
 10
201.686970
 20
39.876827
 30
0.0
 10
200.399801
 20
38.423907
 30
0.0
 10
198.599039
 20
39.313105
 30
0.0
 10
198.301269
 20
39.548836
 30
0.0
 10
197.219459
 20
40.634535
 30
0.0
 10
195.209369
 20
38.853746
 30
0.0
 10
196.156749
 20
37.648956
 30
0.0
 10
196.354869
 20
37.324947
 30
0.0
 10
197.020529
 20
35.430136
 30
0.0
 10
195.423060
 20
34.327485
 30
0.0
 10
193.887421
 20
35.621795
 30
0.0
 10
193.654720
 20
35.921925
 30
0.0
 10
192.864171
 20
37.234975
 30
0.0
 10
190.486318
 20
35.986975
 30
0.0
 10
191.117850
 20
34.590475
 30
0.0
 10
191.232671
 20
34.228465
 30
0.0
 10
191.425520
 20
32.229416
 30
0.0
 10
189.610590
 20
31.541105
 30
0.0
 10
188.429328
 20
33.165305
 30
0.0
 10
188.275219
 20
33.512407
 30
0.0
 10
187.821869
 20
34.976487
 30
0.0
 10
185.214450
 20
34.333816
 30
0.0
 10
185.493419
 20
32.826755
 30
0.0
 10
185.518317
 20
32.447795
 30
0.0
 10
185.227166
 20
30.460676
 30
0.0
 10
183.300248
 20
30.226705
 30
0.0
 10
182.542008
 20
32.086406
 30
0.0
 10
182.475407
 20
32.460296
 30
0.0
 10
182.385608
 20
33.990337
 30
0.0
 10
179.700148
 20
33.990337
 30
0.0
 10
179.610348
 20
32.460296
 30
0.0
 10
179.543747
 20
32.086406
 30
0.0
 10
178.785507
 20
30.226705
 30
0.0
 10
176.858586
 20
30.460676
 30
0.0
 10
176.567436
 20
32.447795
 30
0.0
 10
176.592333
 20
32.826755
 30
0.0
 10
176.871305
 20
34.333816
 30
0.0
 10
174.263883
 20
34.976487
 30
0.0
 10
173.810533
 20
33.512407
 30
0.0
 10
173.656424
 20
33.165305
 30
0.0
 10
172.475165
 20
31.541105
 30
0.0
 10
170.660235
 20
32.229416
 30
0.0
 10
170.853084
 20
34.228465
 30
0.0
 10
170.967905
 20
34.590475
 30
0.0
 10
171.599434
 20
35.986975
 30
0.0
 10
169.221584
 20
37.234975
 30
0.0
 10
168.431035
 20
35.921925
 30
0.0
 10
168.198334
 20
35.621795
 30
0.0
 10
166.662695
 20
34.327485
 30
0.0
 10
165.065226
 20
35.430136
 30
0.0
 10
165.730883
 20
37.324947
 30
0.0
 10
165.929006
 20
37.648956
 30
0.0
 10
166.876383
 20
38.853746
 30
0.0
 10
164.866294
 20
40.634535
 30
0.0
 10
163.784484
 20
39.548836
 30
0.0
 10
163.486714
 20
39.313105
 30
0.0
 10
161.685954
 20
38.423907
 30
0.0
 10
160.398785
 20
39.876827
 30
0.0
 10
161.498555
 20
41.557275
 30
0.0
 10
161.768454
 20
41.824456
 30
0.0
 10
162.976645
 20
42.767505
 30
0.0
 10
161.451126
 20
44.977596
 30
0.0
 10
160.140925
 20
44.182346
 30
0.0
 10
159.795406
 20
44.024726
 30
0.0
 10
157.834163
 20
43.592315
 30
0.0
 10
156.932103
 20
45.311045
 30
0.0
 10
158.402076
 20
46.679476
 30
0.0
 10
158.728074
 20
46.874296
 30
0.0
 10
160.126833
 20
47.500817
 30
0.0
 10
159.174564
 20
50.011765
 30
0.0
 10
157.712114
 20
49.553166
 30
0.0
 10
157.338914
 20
49.482866
 30
0.0
 10
155.331184
 20
49.532367
 30
0.0
 10
154.866655
 20
51.417036
 30
0.0
 10
156.621403
 20
52.393915
 30
0.0
 10
156.984554
 20
52.505056
 30
0.0
 10
158.492605
 20
52.778627
 30
0.0
 10
158.168904
 20
55.444505
 30
0.0
 10
156.639204
 20
55.349205
 30
0.0
 10
156.260014
 20
55.370213
 30
0.0
 10
154.322473
 20
55.898774
 30
0.0
 10
154.322473
 20
57.839834
 30
0.0
 10
156.260014
 20
58.368394
 30
0.0
 10
156.639204
 20
58.389402
 30
0.0
 10
158.168904
 20
58.294102
 30
0.0
 10
158.492605
 20
60.959980
 30
0.0
 10
156.984554
 20
61.233551
 30
0.0
 10
156.621403
 20
61.344692
 30
0.0
 10
154.866655
 20
62.321572
 30
0.0
 10
155.331184
 20
64.206241
 30
0.0
 10
157.338914
 20
64.255742
 30
0.0
 10
157.712114
 20
64.185442
 30
0.0
 10
159.174564
 20
63.726842
 30
0.0
 10
160.126833
 20
66.237792
 30
0.0
 10
158.728074
 20
66.864312
 30
0.0
 10
158.402076
 20
67.059132
 30
0.0
 10
156.932103
 20
68.427562
 30
0.0
 10
157.834163
 20
70.146292
 30
0.0
 10
159.795406
 20
69.713881
 30
0.0
 10
160.140925
 20
69.556261
 30
0.0
 10
161.451126
 20
68.761012
 30
0.0
 10
162.976645
 20
70.971102
 30
0.0
 10
161.768454
 20
71.914152
 30
0.0
 10
161.498555
 20
72.181332
 30
0.0
 10
160.398785
 20
73.861782
 30
0.0
 10
161.685954
 20
75.314702
 30
0.0
 10
163.486714
 20
74.425502
 30
0.0
 10
163.784484
 20
74.189772
 30
0.0
 10
164.866294
 20
73.104072
 30
0.0
 10
166.876383
 20
74.884862
 30
0.0
 10
165.929006
 20
76.089652
 30
0.0
 10
165.730883
 20
76.413662
 30
0.0
 10
165.065226
 20
78.308471
 30
0.0
 10
166.662695
 20
79.411121
 30
0.0
 10
168.198334
 20
78.116812
 30
0.0
 10
168.431035
 20
77.816681
 30
0.0
 10
169.221584
 20
76.503632
 30
0.0
 10
171.599434
 20
77.751632
 30
0.0
 10
170.967905
 20
79.148131
 30
0.0
 10
170.853084
 20
79.510142
 30
0.0
 10
170.660235
 20
81.509192
 30
0.0
 10
172.475165
 20
82.197501
 30
0.0
 10
173.656424
 20
80.573302
 30
0.0
 10
173.810533
 20
80.226202
 30
0.0
 10
174.263883
 20
78.762122
 30
0.0
 10
176.871305
 20
79.404792
 30
0.0
 10
176.592333
 20
80.911852
 30
0.0
 10
176.567436
 20
81.290811
 30
0.0
 10
176.858586
 20
83.277931
 30
0.0
 10
178.785507
 20
83.511901
 30
0.0
 10
179.543747
 20
81.652202
 30
0.0
 10
179.610348
 20
81.278311
 30
0.0
 10
179.700148
 20
79.748272
 30
0.0
 10
182.385608
 20
79.748272
 30
0.0
 10
182.475407
 20
81.278311
 30
0.0
 10
182.542008
 20
81.652202
 30
0.0
 10
183.300248
 20
83.511901
 30
0.0
 10
185.227166
 20
83.277931
 30
0.0
 10
185.518317
 20
81.290811
 30
0.0
 10
185.493419
 20
80.911852
 30
0.0
 10
185.214450
 20
79.404792
 30
0.0
 10
187.821869
 20
78.762122
 30
0.0
 10
188.275219
 20
80.226202
 30
0.0
 10
188.429328
 20
80.573302
 30
0.0
 10
189.610590
 20
82.197501
 30
0.0
 10
191.425520
 20
81.509192
 30
0.0
 10
191.232671
 20
79.510142
 30
0.0
 10
191.117850
 20
79.148131
 30
0.0
 10
190.486318
 20
77.751632
 30
0.0
 10
192.864171
 20
76.503632
 30
0.0
 10
193.654720
 20
77.816681
 30
0.0
 10
193.887421
 20
78.116812
 30
0.0
 10
195.423060
 20
79.411121
 30
0.0
 10
197.020529
 20
78.308471
 30
0.0
 10
196.354869
 20
76.413662
 30
0.0
 10
196.156749
 20
76.089652
 30
0.0
 10
195.209369
 20
74.884862
 30
0.0
 10
197.219459
 20
73.104072
 30
0.0
 10
198.301269
 20
74.189772
 30
0.0
 10
198.599039
 20
74.425502
 30
0.0
 10
200.399801
 20
75.314702
 30
0.0
 10
201.686970
 20
73.861782
 30
0.0
 10
200.587200
 20
72.181332
 30
0.0
 10
200.317301
 20
71.914152
 30
0.0
 10
199.109110
 20
70.971102
 30
0.0
 10
200.634629
 20
68.761012
 30
0.0
 10
201.944830
 20
69.556261
 30
0.0
 10
202.290349
 20
69.713881
 30
0.0
 10
204.251589
 20
70.146292
 30
0.0
 10
205.153649
 20
68.427562
 30
0.0
 10
203.683679
 20
67.059132
 30
0.0
 10
203.357678
 20
66.864312
 30
0.0
 10
201.958919
 20
66.237792
 30
0.0
 10
202.911189
 20
63.726842
 30
0.0
 10
204.373639
 20
64.185442
 30
0.0
 10
204.746839
 20
64.255742
 30
0.0
 10
206.754571
 20
64.206241
 30
0.0
 10
207.219100
 20
62.321572
 30
0.0
 10
205.464349
 20
61.344692
 30
0.0
 10
205.101201
 20
61.233551
 30
0.0
 10
203.593150
 20
60.959980
 30
0.0
 10
203.916849
 20
58.294102
 30
0.0
 10
203.916849
 20
58.294102
 30
0.0
  0
SPLINE
  5
1bb
100
AcDbEntity
  8
Layer_1
 62
7
100
AcDbSpline
 70
8
 71
3
 72
8
 73
4
 74
0
 40
0
 40
0
 40
0
 40
0
 40
1
 40
1
 40
1
 40
1
 10
131.576268
 20
264.406028
 30
0.0
 10
131.576268
 20
263.780813
 30
0.0
 10
131.242721
 20
263.203091
 30
0.0
 10
130.701270
 20
262.890484
 30
0.0
  0
SPLINE
  5
1bc
100
AcDbEntity
  8
Layer_1
 62
7
100
AcDbSpline
 70
8
 71
3
 72
8
 73
4
 74
0
 40
0
 40
0
 40
0
 40
0
 40
1
 40
1
 40
1
 40
1
 10
130.701270
 20
262.890484
 30
0.0
 10
130.159818
 20
262.577876
 30
0.0
 10
129.492722
 20
262.577876
 30
0.0
 10
128.951268
 20
262.890484
 30
0.0
  0
SPLINE
  5
1bd
100
AcDbEntity
  8
Layer_1
 62
7
100
AcDbSpline
 70
8
 71
3
 72
8
 73
4
 74
0
 40
0
 40
0
 40
0
 40
0
 40
1
 40
1
 40
1
 40
1
 10
128.951268
 20
262.890484
 30
0.0
 10
128.409817
 20
263.203091
 30
0.0
 10
128.076270
 20
263.780813
 30
0.0
 10
128.076270
 20
264.406028
 30
0.0
  0
SPLINE
  5
1be
100
AcDbEntity
  8
Layer_1
 62
7
100
AcDbSpline
 70
8
 71
3
 72
8
 73
4
 74
0
 40
0
 40
0
 40
0
 40
0
 40
1
 40
1
 40
1
 40
1
 10
128.076270
 20
264.406028
 30
0.0
 10
128.076270
 20
265.031243
 30
0.0
 10
128.409817
 20
265.608965
 30
0.0
 10
128.951268
 20
265.921572
 30
0.0
  0
SPLINE
  5
1bf
100
AcDbEntity
  8
Layer_1
 62
7
100
AcDbSpline
 70
8
 71
3
 72
8
 73
4
 74
0
 40
0
 40
0
 40
0
 40
0
 40
1
 40
1
 40
1
 40
1
 10
128.951268
 20
265.921572
 30
0.0
 10
129.492722
 20
266.234180
 30
0.0
 10
130.159818
 20
266.234180
 30
0.0
 10
130.701270
 20
265.921572
 30
0.0
  0
SPLINE
  5
1c0
100
AcDbEntity
  8
Layer_1
 62
7
100
AcDbSpline
 70
8
 71
3
 72
8
 73
4
 74
0
 40
0
 40
0
 40
0
 40
0
 40
1
 40
1
 40
1
 40
1
 10
130.701270
 20
265.921572
 30
0.0
 10
131.242721
 20
265.608965
 30
0.0
 10
131.576268
 20
265.031243
 30
0.0
 10
131.576268
 20
264.406028
 30
0.0
  0
SPLINE
  5
1c1
100
AcDbEntity
  8
Layer_1
 62
7
100
AcDbSpline
 70
8
 71
3
 72
8
 73
4
 74
0
 40
0
 40
0
 40
0
 40
0
 40
1
 40
1
 40
1
 40
1
 10
144.130395
 20
264.406028
 30
0.0
 10
144.130395
 20
263.780813
 30
0.0
 10
143.796848
 20
263.203091
 30
0.0
 10
143.255397
 20
262.890484
 30
0.0
  0
SPLINE
  5
1c2
100
AcDbEntity
  8
Layer_1
 62
7
100
AcDbSpline
 70
8
 71
3
 72
8
 73
4
 74
0
 40
0
 40
0
 40
0
 40
0
 40
1
 40
1
 40
1
 40
1
 10
143.255397
 20
262.890484
 30
0.0
 10
142.713946
 20
262.577876
 30
0.0
 10
142.046849
 20
262.577876
 30
0.0
 10
141.505395
 20
262.890484
 30
0.0
  0
SPLINE
  5
1c3
100
AcDbEntity
  8
Layer_1
 62
7
100
AcDbSpline
 70
8
 71
3
 72
8
 73
4
 74
0
 40
0
 40
0
 40
0
 40
0
 40
1
 40
1
 40
1
 40
1
 10
141.505395
 20
262.890484
 30
0.0
 10
140.963944
 20
263.203091
 30
0.0
 10
140.630397
 20
263.780813
 30
0.0
 10
140.630397
 20
264.406028
 30
0.0
  0
SPLINE
  5
1c4
100
AcDbEntity
  8
Layer_1
 62
7
100
AcDbSpline
 70
8
 71
3
 72
8
 73
4
 74
0
 40
0
 40
0
 40
0
 40
0
 40
1
 40
1
 40
1
 40
1
 10
140.630397
 20
264.406028
 30
0.0
 10
140.630397
 20
265.031243
 30
0.0
 10
140.963944
 20
265.608965
 30
0.0
 10
141.505395
 20
265.921572
 30
0.0
  0
SPLINE
  5
1c5
100
AcDbEntity
  8
Layer_1
 62
7
100
AcDbSpline
 70
8
 71
3
 72
8
 73
4
 74
0
 40
0
 40
0
 40
0
 40
0
 40
1
 40
1
 40
1
 40
1
 10
141.505395
 20
265.921572
 30
0.0
 10
142.046849
 20
266.234180
 30
0.0
 10
142.713946
 20
266.234180
 30
0.0
 10
143.255397
 20
265.921572
 30
0.0
  0
SPLINE
  5
1c6
100
AcDbEntity
  8
Layer_1
 62
7
100
AcDbSpline
 70
8
 71
3
 72
8
 73
4
 74
0
 40
0
 40
0
 40
0
 40
0
 40
1
 40
1
 40
1
 40
1
 10
143.255397
 20
265.921572
 30
0.0
 10
143.796848
 20
265.608965
 30
0.0
 10
144.130395
 20
265.031243
 30
0.0
 10
144.130395
 20
264.406028
 30
0.0
  0
LWPOLYLINE
  5
1c7
100
AcDbEntity
  8
Layer_1
 62
7
100
AcDbPolyline
 90
6
 70
1
 10
0.910224
 20
295.362138
 30
0.0
 10
150.024087
 20
295.259530
 30
0.0
 10
150.004388
 20
275.362138
 30
0.0
 10
0.890528
 20
275.464746
 30
0.0
 10
0.910220
 20
295.362138
 30
0.0
 10
0.910224
 20
295.362138
 30
0.0
  0
SPLINE
  5
1c8
100
AcDbEntity
  8
Layer_1
 62
7
100
AcDbSpline
 70
8
 71
3
 72
8
 73
4
 74
0
 40
0
 40
0
 40
0
 40
0
 40
1
 40
1
 40
1
 40
1
 10
180.545025
 20
267.591208
 30
0.0
 10
180.545025
 20
266.965992
 30
0.0
 10
180.211478
 20
266.388272
 30
0.0
 10
179.670024
 20
266.075664
 30
0.0
  0
SPLINE
  5
1c9
100
AcDbEntity
  8
Layer_1
 62
7
100
AcDbSpline
 70
8
 71
3
 72
8
 73
4
 74
0
 40
0
 40
0
 40
0
 40
0
 40
1
 40
1
 40
1
 40
1
 10
179.670024
 20
266.075664
 30
0.0
 10
179.128573
 20
265.763056
 30
0.0
 10
178.461476
 20
265.763056
 30
0.0
 10
177.920025
 20
266.075664
 30
0.0
  0
SPLINE
  5
1ca
100
AcDbEntity
  8
Layer_1
 62
7
100
AcDbSpline
 70
8
 71
3
 72
8
 73
4
 74
0
 40
0
 40
0
 40
0
 40
0
 40
1
 40
1
 40
1
 40
1
 10
177.920025
 20
266.075664
 30
0.0
 10
177.378574
 20
266.388272
 30
0.0
 10
177.045027
 20
266.965992
 30
0.0
 10
177.045027
 20
267.591208
 30
0.0
  0
SPLINE
  5
1cb
100
AcDbEntity
  8
Layer_1
 62
7
100
AcDbSpline
 70
8
 71
3
 72
8
 73
4
 74
0
 40
0
 40
0
 40
0
 40
0
 40
1
 40
1
 40
1
 40
1
 10
177.045027
 20
267.591208
 30
0.0
 10
177.045027
 20
268.216424
 30
0.0
 10
177.378574
 20
268.794144
 30
0.0
 10
177.920025
 20
269.106752
 30
0.0
  0
SPLINE
  5
1cc
100
AcDbEntity
  8
Layer_1
 62
7
100
AcDbSpline
 70
8
 71
3
 72
8
 73
4
 74
0
 40
0
 40
0
 40
0
 40
0
 40
1
 40
1
 40
1
 40
1
 10
177.920025
 20
269.106752
 30
0.0
 10
178.461476
 20
269.419360
 30
0.0
 10
179.128573
 20
269.419360
 30
0.0
 10
179.670024
 20
269.106752
 30
0.0
  0
SPLINE
  5
1cd
100
AcDbEntity
  8
Layer_1
 62
7
100
AcDbSpline
 70
8
 71
3
 72
8
 73
4
 74
0
 40
0
 40
0
 40
0
 40
0
 40
1
 40
1
 40
1
 40
1
 10
179.670024
 20
269.106752
 30
0.0
 10
180.211478
 20
268.794144
 30
0.0
 10
180.545025
 20
268.216424
 30
0.0
 10
180.545025
 20
267.591208
 30
0.0
  0
SPLINE
  5
1ce
100
AcDbEntity
  8
Layer_1
 62
7
100
AcDbSpline
 70
8
 71
3
 72
8
 73
4
 74
0
 40
0
 40
0
 40
0
 40
0
 40
1
 40
1
 40
1
 40
1
 10
182.513895
 20
267.591224
 30
0.0
 10
182.513895
 20
266.262597
 30
0.0
 10
181.805085
 20
265.034899
 30
0.0
 10
180.654462
 20
264.370586
 30
0.0
  0
SPLINE
  5
1cf
100
AcDbEntity
  8
Layer_1
 62
7
100
AcDbSpline
 70
8
 71
3
 72
8
 73
4
 74
0
 40
0
 40
0
 40
0
 40
0
 40
1
 40
1
 40
1
 40
1
 10
180.654462
 20
264.370586
 30
0.0
 10
179.503839
 20
263.706273
 30
0.0
 10
178.086212
 20
263.706273
 30
0.0
 10
176.935590
 20
264.370586
 30
0.0
  0
SPLINE
  5
1d0
100
AcDbEntity
  8
Layer_1
 62
7
100
AcDbSpline
 70
8
 71
3
 72
8
 73
4
 74
0
 40
0
 40
0
 40
0
 40
0
 40
1
 40
1
 40
1
 40
1
 10
176.935590
 20
264.370586
 30
0.0
 10
175.784967
 20
265.034899
 30
0.0
 10
175.076154
 20
266.262597
 30
0.0
 10
175.076154
 20
267.591224
 30
0.0
  0
SPLINE
  5
1d1
100
AcDbEntity
  8
Layer_1
 62
7
100
AcDbSpline
 70
8
 71
3
 72
8
 73
4
 74
0
 40
0
 40
0
 40
0
 40
0
 40
1
 40
1
 40
1
 40
1
 10
175.076154
 20
267.591224
 30
0.0
 10
175.076154
 20
268.919847
 30
0.0
 10
175.784967
 20
270.147549
 30
0.0
 10
176.935590
 20
270.811859
 30
0.0
  0
SPLINE
  5
1d2
100
AcDbEntity
  8
Layer_1
 62
7
100
AcDbSpline
 70
8
 71
3
 72
8
 73
4
 74
0
 40
0
 40
0
 40
0
 40
0
 40
1
 40
1
 40
1
 40
1
 10
176.935590
 20
270.811859
 30
0.0
 10
178.086212
 20
271.476172
 30
0.0
 10
179.503839
 20
271.476172
 30
0.0
 10
180.654462
 20
270.811859
 30
0.0
  0
SPLINE
  5
1d3
100
AcDbEntity
  8
Layer_1
 62
7
100
AcDbSpline
 70
8
 71
3
 72
8
 73
4
 74
0
 40
0
 40
0
 40
0
 40
0
 40
1
 40
1
 40
1
 40
1
 10
180.654462
 20
270.811859
 30
0.0
 10
181.805085
 20
270.147549
 30
0.0
 10
182.513895
 20
268.919847
 30
0.0
 10
182.513895
 20
267.591224
 30
0.0
  0
LWPOLYLINE
  5
1d4
100
AcDbEntity
  8
Layer_1
 62
7
100
AcDbPolyline
 90
6
 70
1
 10
0.664770
 20
274.406078
 30
0.0
 10
149.778632
 20
274.303470
 30
0.0
 10
149.758934
 20
254.406078
 30
0.0
 10
0.645073
 20
254.508686
 30
0.0
 10
0.664765
 20
274.406078
 30
0.0
 10
0.664770
 20
274.406078
 30
0.0
  0
SPLINE
  5
1d5
100
AcDbEntity
  8
Layer_1
 62
7
100
AcDbSpline
 70
8
 71
3
 72
8
 73
4
 74
0
 40
0
 40
0
 40
0
 40
0
 40
1
 40
1
 40
1
 40
1
 10
566.548164
 20
257.524579
 30
0.0
 10
566.548164
 20
256.899364
 30
0.0
 10
566.214604
 20
256.321643
 30
0.0
 10
565.673161
 20
256.009036
 30
0.0
  0
SPLINE
  5
1d6
100
AcDbEntity
  8
Layer_1
 62
7
100
AcDbSpline
 70
8
 71
3
 72
8
 73
4
 74
0
 40
0
 40
0
 40
0
 40
0
 40
1
 40
1
 40
1
 40
1
 10
565.673161
 20
256.009036
 30
0.0
 10
565.131717
 20
255.696428
 30
0.0
 10
564.464623
 20
255.696428
 30
0.0
 10
563.923154
 20
256.009036
 30
0.0
  0
SPLINE
  5
1d7
100
AcDbEntity
  8
Layer_1
 62
7
100
AcDbSpline
 70
8
 71
3
 72
8
 73
4
 74
0
 40
0
 40
0
 40
0
 40
0
 40
1
 40
1
 40
1
 40
1
 10
563.923154
 20
256.009036
 30
0.0
 10
563.381710
 20
256.321643
 30
0.0
 10
563.048176
 20
256.899364
 30
0.0
 10
563.048176
 20
257.524579
 30
0.0
  0
SPLINE
  5
1d8
100
AcDbEntity
  8
Layer_1
 62
7
100
AcDbSpline
 70
8
 71
3
 72
8
 73
4
 74
0
 40
0
 40
0
 40
0
 40
0
 40
1
 40
1
 40
1
 40
1
 10
563.048176
 20
257.524579
 30
0.0
 10
563.048176
 20
258.149795
 30
0.0
 10
563.381710
 20
258.727515
 30
0.0
 10
563.923154
 20
259.040123
 30
0.0
  0
SPLINE
  5
1d9
100
AcDbEntity
  8
Layer_1
 62
7
100
AcDbSpline
 70
8
 71
3
 72
8
 73
4
 74
0
 40
0
 40
0
 40
0
 40
0
 40
1
 40
1
 40
1
 40
1
 10
563.923154
 20
259.040123
 30
0.0
 10
564.464623
 20
259.352731
 30
0.0
 10
565.131717
 20
259.352731
 30
0.0
 10
565.673161
 20
259.040123
 30
0.0
  0
SPLINE
  5
1da
100
AcDbEntity
  8
Layer_1
 62
7
100
AcDbSpline
 70
8
 71
3
 72
8
 73
4
 74
0
 40
0
 40
0
 40
0
 40
0
 40
1
 40
1
 40
1
 40
1
 10
565.673161
 20
259.040123
 30
0.0
 10
566.214604
 20
258.727515
 30
0.0
 10
566.548164
 20
258.149795
 30
0.0
 10
566.548164
 20
257.524579
 30
0.0
  0
SPLINE
  5
1db
100
AcDbEntity
  8
Layer_1
 62
7
100
AcDbSpline
 70
8
 71
3
 72
8
 73
4
 74
0
 40
0
 40
0
 40
0
 40
0
 40
1
 40
1
 40
1
 40
1
 10
568.517035
 20
257.524595
 30
0.0
 10
568.517035
 20
256.195969
 30
0.0
 10
567.808216
 20
254.968271
 30
0.0
 10
566.657596
 20
254.303957
 30
0.0
  0
SPLINE
  5
1dc
100
AcDbEntity
  8
Layer_1
 62
7
100
AcDbSpline
 70
8
 71
3
 72
8
 73
4
 74
0
 40
0
 40
0
 40
0
 40
0
 40
1
 40
1
 40
1
 40
1
 10
566.657596
 20
254.303957
 30
0.0
 10
565.506976
 20
253.639644
 30
0.0
 10
564.089365
 20
253.639644
 30
0.0
 10
562.938718
 20
254.303957
 30
0.0
  0
SPLINE
  5
1dd
100
AcDbEntity
  8
Layer_1
 62
7
100
AcDbSpline
 70
8
 71
3
 72
8
 73
4
 74
0
 40
0
 40
0
 40
0
 40
0
 40
1
 40
1
 40
1
 40
1
 10
562.938718
 20
254.303957
 30
0.0
 10
561.788098
 20
254.968271
 30
0.0
 10
561.079306
 20
256.195969
 30
0.0
 10
561.079306
 20
257.524595
 30
0.0
  0
SPLINE
  5
1de
100
AcDbEntity
  8
Layer_1
 62
7
100
AcDbSpline
 70
8
 71
3
 72
8
 73
4
 74
0
 40
0
 40
0
 40
0
 40
0
 40
1
 40
1
 40
1
 40
1
 10
561.079306
 20
257.524595
 30
0.0
 10
561.079306
 20
258.853219
 30
0.0
 10
561.788098
 20
260.080920
 30
0.0
 10
562.938718
 20
260.745231
 30
0.0
  0
SPLINE
  5
1df
100
AcDbEntity
  8
Layer_1
 62
7
100
AcDbSpline
 70
8
 71
3
 72
8
 73
4
 74
0
 40
0
 40
0
 40
0
 40
0
 40
1
 40
1
 40
1
 40
1
 10
562.938718
 20
260.745231
 30
0.0
 10
564.089365
 20
261.409544
 30
0.0
 10
565.506976
 20
261.409544
 30
0.0
 10
566.657596
 20
260.745231
 30
0.0
  0
SPLINE
  5
1e0
100
AcDbEntity
  8
Layer_1
 62
7
100
AcDbSpline
 70
8
 71
3
 72
8
 73
4
 74
0
 40
0
 40
0
 40
0
 40
0
 40
1
 40
1
 40
1
 40
1
 10
566.657596
 20
260.745231
 30
0.0
 10
567.808216
 20
260.080920
 30
0.0
 10
568.517035
 20
258.853219
 30
0.0
 10
568.517035
 20
257.524595
 30
0.0
  0
LWPOLYLINE
  5
1e1
100
AcDbEntity
  8
Layer_1
 62
7
100
AcDbPolyline
 90
420
 70
1
 10
201.669014
 20
269.016018
 30
0.0
 10
203.198716
 20
269.111318
 30
0.0
 10
203.577906
 20
269.090311
 30
0.0
 10
205.515445
 20
268.561750
 30
0.0
 10
205.515445
 20
266.620690
 30
0.0
 10
203.577906
 20
266.092129
 30
0.0
 10
203.198716
 20
266.071121
 30
0.0
 10
201.669014
 20
266.166421
 30
0.0
 10
201.345315
 20
263.500543
 30
0.0
 10
202.853366
 20
263.226972
 30
0.0
 10
203.216515
 20
263.115831
 30
0.0
 10
204.971266
 20
262.138952
 30
0.0
 10
204.506737
 20
260.254283
 30
0.0
 10
202.499004
 20
260.204782
 30
0.0
 10
202.125804
 20
260.275082
 30
0.0
 10
200.663354
 20
260.733681
 30
0.0
 10
199.711085
 20
258.222733
 30
0.0
 10
201.109844
 20
257.596213
 30
0.0
 10
201.435845
 20
257.401392
 30
0.0
 10
202.905815
 20
256.032962
 30
0.0
 10
202.003755
 20
254.314231
 30
0.0
 10
200.042515
 20
254.746642
 30
0.0
 10
199.696995
 20
254.904262
 30
0.0
 10
198.386795
 20
255.699513
 30
0.0
 10
196.861276
 20
253.489422
 30
0.0
 10
198.069467
 20
252.546372
 30
0.0
 10
198.339365
 20
252.279191
 30
0.0
 10
199.439135
 20
250.598743
 30
0.0
 10
198.151966
 20
249.145823
 30
0.0
 10
196.351204
 20
250.035022
 30
0.0
 10
196.053434
 20
250.270752
 30
0.0
 10
194.971624
 20
251.356451
 30
0.0
 10
192.961535
 20
249.575663
 30
0.0
 10
193.908915
 20
248.370872
 30
0.0
 10
194.107035
 20
248.046863
 30
0.0
 10
194.772695
 20
246.152052
 30
0.0
 10
193.175225
 20
245.049401
 30
0.0
 10
191.639586
 20
246.343711
 30
0.0
 10
191.406885
 20
246.643841
 30
0.0
 10
190.616337
 20
247.956891
 30
0.0
 10
188.238484
 20
246.708892
 30
0.0
 10
188.870015
 20
245.312392
 30
0.0
 10
188.984837
 20
244.950381
 30
0.0
 10
189.177686
 20
242.951332
 30
0.0
 10
187.362755
 20
242.263021
 30
0.0
 10
186.181494
 20
243.887221
 30
0.0
 10
186.027385
 20
244.234323
 30
0.0
 10
185.574035
 20
245.698403
 30
0.0
 10
182.966616
 20
245.055733
 30
0.0
 10
183.245585
 20
243.548671
 30
0.0
 10
183.270482
 20
243.169711
 30
0.0
 10
182.979332
 20
241.182592
 30
0.0
 10
181.052414
 20
240.948621
 30
0.0
 10
180.294174
 20
242.808322
 30
0.0
 10
180.227573
 20
243.182213
 30
0.0
 10
180.137773
 20
244.712253
 30
0.0
 10
177.452313
 20
244.712253
 30
0.0
 10
177.362514
 20
243.182213
 30
0.0
 10
177.295913
 20
242.808322
 30
0.0
 10
176.537672
 20
240.948621
 30
0.0
 10
174.610752
 20
241.182592
 30
0.0
 10
174.319601
 20
243.169711
 30
0.0
 10
174.344499
 20
243.548671
 30
0.0
 10
174.623470
 20
245.055733
 30
0.0
 10
172.016049
 20
245.698403
 30
0.0
 10
171.562699
 20
244.234323
 30
0.0
 10
171.408589
 20
243.887221
 30
0.0
 10
170.227331
 20
242.263021
 30
0.0
 10
168.412400
 20
242.951332
 30
0.0
 10
168.605250
 20
244.950381
 30
0.0
 10
168.720071
 20
245.312392
 30
0.0
 10
169.351600
 20
246.708892
 30
0.0
 10
166.973749
 20
247.956891
 30
0.0
 10
166.183201
 20
246.643841
 30
0.0
 10
165.950500
 20
246.343711
 30
0.0
 10
164.414861
 20
245.049401
 30
0.0
 10
162.817391
 20
246.152052
 30
0.0
 10
163.483049
 20
248.046863
 30
0.0
 10
163.681171
 20
248.370872
 30
0.0
 10
164.628549
 20
249.575663
 30
0.0
 10
162.618459
 20
251.356451
 30
0.0
 10
161.536649
 20
250.270752
 30
0.0
 10
161.238879
 20
250.035022
 30
0.0
 10
159.438120
 20
249.145823
 30
0.0
 10
158.150951
 20
250.598743
 30
0.0
 10
159.250721
 20
252.279191
 30
0.0
 10
159.520620
 20
252.546372
 30
0.0
 10
160.728810
 20
253.489422
 30
0.0
 10
159.203292
 20
255.699513
 30
0.0
 10
157.893091
 20
254.904262
 30
0.0
 10
157.547571
 20
254.746642
 30
0.0
 10
155.586329
 20
254.314231
 30
0.0
 10
154.684269
 20
256.032962
 30
0.0
 10
156.154241
 20
257.401392
 30
0.0
 10
156.480240
 20
257.596213
 30
0.0
 10
157.878999
 20
258.222733
 30
0.0
 10
156.926729
 20
260.733681
 30
0.0
 10
155.464279
 20
260.275082
 30
0.0
 10
155.091079
 20
260.204782
 30
0.0
 10
153.083349
 20
260.254283
 30
0.0
 10
152.618820
 20
262.138952
 30
0.0
 10
154.373569
 20
263.115831
 30
0.0
 10
154.736720
 20
263.226972
 30
0.0
 10
156.244771
 20
263.500543
 30
0.0
 10
155.921069
 20
266.166421
 30
0.0
 10
154.391370
 20
266.071121
 30
0.0
 10
154.012180
 20
266.092129
 30
0.0
 10
152.074639
 20
266.620690
 30
0.0
 10
152.074639
 20
268.561750
 30
0.0
 10
154.012180
 20
269.090311
 30
0.0
 10
154.391370
 20
269.111318
 30
0.0
 10
155.921069
 20
269.016018
 30
0.0
 10
156.244771
 20
271.681896
 30
0.0
 10
154.736720
 20
271.955468
 30
0.0
 10
154.373569
 20
272.066608
 30
0.0
 10
152.618820
 20
273.043488
 30
0.0
 10
153.083349
 20
274.928158
 30
0.0
 10
155.091079
 20
274.977658
 30
0.0
 10
155.464279
 20
274.907358
 30
0.0
 10
156.926729
 20
274.448758
 30
0.0
 10
157.878999
 20
276.959708
 30
0.0
 10
156.480240
 20
277.586228
 30
0.0
 10
156.154241
 20
277.781048
 30
0.0
 10
154.684269
 20
279.149478
 30
0.0
 10
155.586329
 20
280.868208
 30
0.0
 10
157.547571
 20
280.435798
 30
0.0
 10
157.893091
 20
280.278178
 30
0.0
 10
159.203292
 20
279.482928
 30
0.0
 10
160.728810
 20
281.693018
 30
0.0
 10
159.520620
 20
282.636068
 30
0.0
 10
159.250721
 20
282.903248
 30
0.0
 10
158.150951
 20
284.583698
 30
0.0
 10
159.438120
 20
286.036618
 30
0.0
 10
161.238879
 20
285.147418
 30
0.0
 10
161.536649
 20
284.911688
 30
0.0
 10
162.618459
 20
283.825988
 30
0.0
 10
164.628549
 20
285.606778
 30
0.0
 10
163.681171
 20
286.811568
 30
0.0
 10
163.483049
 20
287.135578
 30
0.0
 10
162.817391
 20
289.030388
 30
0.0
 10
164.414861
 20
290.133038
 30
0.0
 10
165.950500
 20
288.838728
 30
0.0
 10
166.183201
 20
288.538598
 30
0.0
 10
166.973749
 20
287.225548
 30
0.0
 10
169.351600
 20
288.473548
 30
0.0
 10
168.720071
 20
289.870048
 30
0.0
 10
168.605250
 20
290.232058
 30
0.0
 10
168.412400
 20
292.231108
 30
0.0
 10
170.227331
 20
292.919418
 30
0.0
 10
171.408589
 20
291.295218
 30
0.0
 10
171.562699
 20
290.948118
 30
0.0
 10
172.016049
 20
289.484038
 30
0.0
 10
174.623470
 20
290.126708
 30
0.0
 10
174.344499
 20
291.633768
 30
0.0
 10
174.319601
 20
292.012728
 30
0.0
 10
174.610752
 20
293.999848
 30
0.0
 10
176.537672
 20
294.233818
 30
0.0
 10
177.295913
 20
292.374118
 30
0.0
 10
177.362514
 20
292.000228
 30
0.0
 10
177.452313
 20
290.470188
 30
0.0
 10
180.137773
 20
290.470188
 30
0.0
 10
180.227573
 20
292.000228
 30
0.0
 10
180.294174
 20
292.374118
 30
0.0
 10
181.052414
 20
294.233818
 30
0.0
 10
182.979332
 20
293.999848
 30
0.0
 10
183.270482
 20
292.012728
 30
0.0
 10
183.245585
 20
291.633768
 30
0.0
 10
182.966616
 20
290.126708
 30
0.0
 10
185.574035
 20
289.484038
 30
0.0
 10
186.027385
 20
290.948118
 30
0.0
 10
186.181494
 20
291.295218
 30
0.0
 10
187.362755
 20
292.919418
 30
0.0
 10
189.177686
 20
292.231108
 30
0.0
 10
188.984837
 20
290.232058
 30
0.0
 10
188.870015
 20
289.870048
 30
0.0
 10
188.238484
 20
288.473548
 30
0.0
 10
190.616337
 20
287.225548
 30
0.0
 10
191.406885
 20
288.538598
 30
0.0
 10
191.639586
 20
288.838728
 30
0.0
 10
193.175225
 20
290.133038
 30
0.0
 10
194.772695
 20
289.030388
 30
0.0
 10
194.107035
 20
287.135578
 30
0.0
 10
193.908915
 20
286.811568
 30
0.0
 10
192.961535
 20
285.606778
 30
0.0
 10
194.971624
 20
283.825988
 30
0.0
 10
196.053434
 20
284.911688
 30
0.0
 10
196.351204
 20
285.147418
 30
0.0
 10
198.151966
 20
286.036618
 30
0.0
 10
199.439135
 20
284.583698
 30
0.0
 10
198.339365
 20
282.903248
 30
0.0
 10
198.069467
 20
282.636068
 30
0.0
 10
196.861276
 20
281.693018
 30
0.0
 10
198.386795
 20
279.482928
 30
0.0
 10
199.696995
 20
280.278178
 30
0.0
 10
200.042515
 20
280.435798
 30
0.0
 10
202.003755
 20
280.868208
 30
0.0
 10
202.905815
 20
279.149478
 30
0.0
 10
201.435845
 20
277.781048
 30
0.0
 10
201.109844
 20
277.586228
 30
0.0
 10
199.711085
 20
276.959708
 30
0.0
 10
200.663354
 20
274.448758
 30
0.0
 10
202.125804
 20
274.907358
 30
0.0
 10
202.499004
 20
274.977658
 30
0.0
 10
204.506737
 20
274.928158
 30
0.0
 10
204.971266
 20
273.043488
 30
0.0
 10
203.216515
 20
272.066608
 30
0.0
 10
202.853366
 20
271.955468
 30
0.0
 10
201.345315
 20
271.681896
 30
0.0
 10
201.669014
 20
269.016018
 30
0.0
 10
201.669014
 20
269.016018
 30
0.0
 10
201.669014
 20
269.016018
 30
0.0
 10
203.198716
 20
269.111318
 30
0.0
 10
203.577906
 20
269.090311
 30
0.0
 10
205.515445
 20
268.561750
 30
0.0
 10
205.515445
 20
266.620690
 30
0.0
 10
203.577906
 20
266.092129
 30
0.0
 10
203.198716
 20
266.071121
 30
0.0
 10
201.669014
 20
266.166421
 30
0.0
 10
201.345315
 20
263.500543
 30
0.0
 10
202.853366
 20
263.226972
 30
0.0
 10
203.216515
 20
263.115831
 30
0.0
 10
204.971266
 20
262.138952
 30
0.0
 10
204.506737
 20
260.254283
 30
0.0
 10
202.499004
 20
260.204782
 30
0.0
 10
202.125804
 20
260.275082
 30
0.0
 10
200.663354
 20
260.733681
 30
0.0
 10
199.711085
 20
258.222733
 30
0.0
 10
201.109844
 20
257.596213
 30
0.0
 10
201.435845
 20
257.401392
 30
0.0
 10
202.905815
 20
256.032962
 30
0.0
 10
202.003755
 20
254.314231
 30
0.0
 10
200.042515
 20
254.746642
 30
0.0
 10
199.696995
 20
254.904262
 30
0.0
 10
198.386795
 20
255.699513
 30
0.0
 10
196.861276
 20
253.489422
 30
0.0
 10
198.069467
 20
252.546372
 30
0.0
 10
198.339365
 20
252.279191
 30
0.0
 10
199.439135
 20
250.598743
 30
0.0
 10
198.151966
 20
249.145823
 30
0.0
 10
196.351204
 20
250.035022
 30
0.0
 10
196.053434
 20
250.270752
 30
0.0
 10
194.971624
 20
251.356451
 30
0.0
 10
192.961535
 20
249.575663
 30
0.0
 10
193.908915
 20
248.370872
 30
0.0
 10
194.107035
 20
248.046863
 30
0.0
 10
194.772695
 20
246.152052
 30
0.0
 10
193.175225
 20
245.049401
 30
0.0
 10
191.639586
 20
246.343711
 30
0.0
 10
191.406885
 20
246.643841
 30
0.0
 10
190.616337
 20
247.956891
 30
0.0
 10
188.238484
 20
246.708892
 30
0.0
 10
188.870015
 20
245.312392
 30
0.0
 10
188.984837
 20
244.950381
 30
0.0
 10
189.177686
 20
242.951332
 30
0.0
 10
187.362755
 20
242.263021
 30
0.0
 10
186.181494
 20
243.887221
 30
0.0
 10
186.027385
 20
244.234323
 30
0.0
 10
185.574035
 20
245.698403
 30
0.0
 10
182.966616
 20
245.055733
 30
0.0
 10
183.245585
 20
243.548671
 30
0.0
 10
183.270482
 20
243.169711
 30
0.0
 10
182.979332
 20
241.182592
 30
0.0
 10
181.052414
 20
240.948621
 30
0.0
 10
180.294174
 20
242.808322
 30
0.0
 10
180.227573
 20
243.182213
 30
0.0
 10
180.137773
 20
244.712253
 30
0.0
 10
177.452313
 20
244.712253
 30
0.0
 10
177.362514
 20
243.182213
 30
0.0
 10
177.295913
 20
242.808322
 30
0.0
 10
176.537672
 20
240.948621
 30
0.0
 10
174.610752
 20
241.182592
 30
0.0
 10
174.319601
 20
243.169711
 30
0.0
 10
174.344499
 20
243.548671
 30
0.0
 10
174.623470
 20
245.055733
 30
0.0
 10
172.016049
 20
245.698403
 30
0.0
 10
171.562699
 20
244.234323
 30
0.0
 10
171.408589
 20
243.887221
 30
0.0
 10
170.227331
 20
242.263021
 30
0.0
 10
168.412400
 20
242.951332
 30
0.0
 10
168.605250
 20
244.950381
 30
0.0
 10
168.720071
 20
245.312392
 30
0.0
 10
169.351600
 20
246.708892
 30
0.0
 10
166.973749
 20
247.956891
 30
0.0
 10
166.183201
 20
246.643841
 30
0.0
 10
165.950500
 20
246.343711
 30
0.0
 10
164.414861
 20
245.049401
 30
0.0
 10
162.817391
 20
246.152052
 30
0.0
 10
163.483049
 20
248.046863
 30
0.0
 10
163.681171
 20
248.370872
 30
0.0
 10
164.628549
 20
249.575663
 30
0.0
 10
162.618459
 20
251.356451
 30
0.0
 10
161.536649
 20
250.270752
 30
0.0
 10
161.238879
 20
250.035022
 30
0.0
 10
159.438120
 20
249.145823
 30
0.0
 10
158.150951
 20
250.598743
 30
0.0
 10
159.250721
 20
252.279191
 30
0.0
 10
159.520620
 20
252.546372
 30
0.0
 10
160.728810
 20
253.489422
 30
0.0
 10
159.203292
 20
255.699513
 30
0.0
 10
157.893091
 20
254.904262
 30
0.0
 10
157.547571
 20
254.746642
 30
0.0
 10
155.586329
 20
254.314231
 30
0.0
 10
154.684269
 20
256.032962
 30
0.0
 10
156.154241
 20
257.401392
 30
0.0
 10
156.480240
 20
257.596213
 30
0.0
 10
157.878999
 20
258.222733
 30
0.0
 10
156.926729
 20
260.733681
 30
0.0
 10
155.464279
 20
260.275082
 30
0.0
 10
155.091079
 20
260.204782
 30
0.0
 10
153.083349
 20
260.254283
 30
0.0
 10
152.618820
 20
262.138952
 30
0.0
 10
154.373569
 20
263.115831
 30
0.0
 10
154.736720
 20
263.226972
 30
0.0
 10
156.244771
 20
263.500543
 30
0.0
 10
155.921069
 20
266.166421
 30
0.0
 10
154.391370
 20
266.071121
 30
0.0
 10
154.012180
 20
266.092129
 30
0.0
 10
152.074639
 20
266.620690
 30
0.0
 10
152.074639
 20
268.561750
 30
0.0
 10
154.012180
 20
269.090311
 30
0.0
 10
154.391370
 20
269.111318
 30
0.0
 10
155.921069
 20
269.016018
 30
0.0
 10
156.244771
 20
271.681896
 30
0.0
 10
154.736720
 20
271.955468
 30
0.0
 10
154.373569
 20
272.066608
 30
0.0
 10
152.618820
 20
273.043488
 30
0.0
 10
153.083349
 20
274.928158
 30
0.0
 10
155.091079
 20
274.977658
 30
0.0
 10
155.464279
 20
274.907358
 30
0.0
 10
156.926729
 20
274.448758
 30
0.0
 10
157.878999
 20
276.959708
 30
0.0
 10
156.480240
 20
277.586228
 30
0.0
 10
156.154241
 20
277.781048
 30
0.0
 10
154.684269
 20
279.149478
 30
0.0
 10
155.586329
 20
280.868208
 30
0.0
 10
157.547571
 20
280.435798
 30
0.0
 10
157.893091
 20
280.278178
 30
0.0
 10
159.203292
 20
279.482928
 30
0.0
 10
160.728810
 20
281.693018
 30
0.0
 10
159.520620
 20
282.636068
 30
0.0
 10
159.250721
 20
282.903248
 30
0.0
 10
158.150951
 20
284.583698
 30
0.0
 10
159.438120
 20
286.036618
 30
0.0
 10
161.238879
 20
285.147418
 30
0.0
 10
161.536649
 20
284.911688
 30
0.0
 10
162.618459
 20
283.825988
 30
0.0
 10
164.628549
 20
285.606778
 30
0.0
 10
163.681171
 20
286.811568
 30
0.0
 10
163.483049
 20
287.135578
 30
0.0
 10
162.817391
 20
289.030388
 30
0.0
 10
164.414861
 20
290.133038
 30
0.0
 10
165.950500
 20
288.838728
 30
0.0
 10
166.183201
 20
288.538598
 30
0.0
 10
166.973749
 20
287.225548
 30
0.0
 10
169.351600
 20
288.473548
 30
0.0
 10
168.720071
 20
289.870048
 30
0.0
 10
168.605250
 20
290.232058
 30
0.0
 10
168.412400
 20
292.231108
 30
0.0
 10
170.227331
 20
292.919418
 30
0.0
 10
171.408589
 20
291.295218
 30
0.0
 10
171.562699
 20
290.948118
 30
0.0
 10
172.016049
 20
289.484038
 30
0.0
 10
174.623470
 20
290.126708
 30
0.0
 10
174.344499
 20
291.633768
 30
0.0
 10
174.319601
 20
292.012728
 30
0.0
 10
174.610752
 20
293.999848
 30
0.0
 10
176.537672
 20
294.233818
 30
0.0
 10
177.295913
 20
292.374118
 30
0.0
 10
177.362514
 20
292.000228
 30
0.0
 10
177.452313
 20
290.470188
 30
0.0
 10
180.137773
 20
290.470188
 30
0.0
 10
180.227573
 20
292.000228
 30
0.0
 10
180.294174
 20
292.374118
 30
0.0
 10
181.052414
 20
294.233818
 30
0.0
 10
182.979332
 20
293.999848
 30
0.0
 10
183.270482
 20
292.012728
 30
0.0
 10
183.245585
 20
291.633768
 30
0.0
 10
182.966616
 20
290.126708
 30
0.0
 10
185.574035
 20
289.484038
 30
0.0
 10
186.027385
 20
290.948118
 30
0.0
 10
186.181494
 20
291.295218
 30
0.0
 10
187.362755
 20
292.919418
 30
0.0
 10
189.177686
 20
292.231108
 30
0.0
 10
188.984837
 20
290.232058
 30
0.0
 10
188.870015
 20
289.870048
 30
0.0
 10
188.238484
 20
288.473548
 30
0.0
 10
190.616337
 20
287.225548
 30
0.0
 10
191.406885
 20
288.538598
 30
0.0
 10
191.639586
 20
288.838728
 30
0.0
 10
193.175225
 20
290.133038
 30
0.0
 10
194.772695
 20
289.030388
 30
0.0
 10
194.107035
 20
287.135578
 30
0.0
 10
193.908915
 20
286.811568
 30
0.0
 10
192.961535
 20
285.606778
 30
0.0
 10
194.971624
 20
283.825988
 30
0.0
 10
196.053434
 20
284.911688
 30
0.0
 10
196.351204
 20
285.147418
 30
0.0
 10
198.151966
 20
286.036618
 30
0.0
 10
199.439135
 20
284.583698
 30
0.0
 10
198.339365
 20
282.903248
 30
0.0
 10
198.069467
 20
282.636068
 30
0.0
 10
196.861276
 20
281.693018
 30
0.0
 10
198.386795
 20
279.482928
 30
0.0
 10
199.696995
 20
280.278178
 30
0.0
 10
200.042515
 20
280.435798
 30
0.0
 10
202.003755
 20
280.868208
 30
0.0
 10
202.905815
 20
279.149478
 30
0.0
 10
201.435845
 20
277.781048
 30
0.0
 10
201.109844
 20
277.586228
 30
0.0
 10
199.711085
 20
276.959708
 30
0.0
 10
200.663354
 20
274.448758
 30
0.0
 10
202.125804
 20
274.907358
 30
0.0
 10
202.499004
 20
274.977658
 30
0.0
 10
204.506737
 20
274.928158
 30
0.0
 10
204.971266
 20
273.043488
 30
0.0
 10
203.216515
 20
272.066608
 30
0.0
 10
202.853366
 20
271.955468
 30
0.0
 10
201.345315
 20
271.681896
 30
0.0
 10
201.669014
 20
269.016018
 30
0.0
 10
201.669014
 20
269.016018
 30
0.0
  0
LWPOLYLINE
  5
1e2
100
AcDbEntity
  8
Layer_1
 62
7
100
AcDbPolyline
 90
416
 70
1
 10
587.672154
 20
258.949390
 30
0.0
 10
589.201869
 20
259.044690
 30
0.0
 10
589.581043
 20
259.023682
 30
0.0
 10
591.518587
 20
258.495121
 30
0.0
 10
591.518587
 20
256.554061
 30
0.0
 10
589.581043
 20
256.025501
 30
0.0
 10
589.201869
 20
256.004493
 30
0.0
 10
587.672154
 20
256.099793
 30
0.0
 10
587.348462
 20
253.433915
 30
0.0
 10
588.856508
 20
253.160343
 30
0.0
 10
589.219649
 20
253.049203
 30
0.0
 10
590.974418
 20
252.072324
 30
0.0
 10
590.509863
 20
250.187654
 30
0.0
 10
588.502151
 20
250.138154
 30
0.0
 10
588.128957
 20
250.208453
 30
0.0
 10
586.666499
 20
250.667053
 30
0.0
 10
585.714210
 20
248.156104
 30
0.0
 10
587.112983
 20
247.529584
 30
0.0
 10
587.438976
 20
247.334764
 30
0.0
 10
588.908948
 20
245.966333
 30
0.0
 10
588.006904
 20
244.247603
 30
0.0
 10
586.045654
 20
244.680014
 30
0.0
 10
585.700135
 20
244.837634
 30
0.0
 10
584.389944
 20
245.632884
 30
0.0
 10
582.864410
 20
243.422793
 30
0.0
 10
584.072603
 20
242.479744
 30
0.0
 10
584.342505
 20
242.212562
 30
0.0
 10
585.442272
 20
240.532114
 30
0.0
 10
584.155100
 20
239.079195
 30
0.0
 10
582.354346
 20
239.968393
 30
0.0
 10
582.056584
 20
240.204124
 30
0.0
 10
580.974756
 20
241.289823
 30
0.0
 10
578.964663
 20
239.509034
 30
0.0
 10
579.912057
 20
238.304243
 30
0.0
 10
580.110177
 20
237.980235
 30
0.0
 10
580.775842
 20
236.085424
 30
0.0
 10
579.178367
 20
234.982773
 30
0.0
 10
577.642725
 20
236.277083
 30
0.0
 10
577.410024
 20
236.577213
 30
0.0
 10
576.619476
 20
237.890263
 30
0.0
 10
574.241612
 20
236.642263
 30
0.0
 10
574.873146
 20
235.245763
 30
0.0
 10
574.987976
 20
234.883752
 30
0.0
 10
575.180830
 20
232.884704
 30
0.0
 10
573.365895
 20
232.196393
 30
0.0
 10
572.184636
 20
233.820593
 30
0.0
 10
572.030516
 20
234.167695
 30
0.0
 10
571.577179
 20
235.631774
 30
0.0
 10
568.969763
 20
234.989104
 30
0.0
 10
569.248713
 20
233.482043
 30
0.0
 10
569.273584
 20
233.103083
 30
0.0
 10
568.982437
 20
231.115964
 30
0.0
 10
567.055529
 20
230.881993
 30
0.0
 10
566.297286
 20
232.741694
 30
0.0
 10
566.230691
 20
233.115584
 30
0.0
 10
566.140891
 20
234.645625
 30
0.0
 10
563.455423
 20
234.645625
 30
0.0
 10
563.365624
 20
233.115584
 30
0.0
 10
563.299028
 20
232.741694
 30
0.0
 10
562.540785
 20
230.881993
 30
0.0
 10
560.613878
 20
231.115964
 30
0.0
 10
560.322704
 20
233.103083
 30
0.0
 10
560.347574
 20
233.482043
 30
0.0
 10
560.626551
 20
234.989104
 30
0.0
 10
558.019135
 20
235.631774
 30
0.0
 10
557.565798
 20
234.167695
 30
0.0
 10
557.411678
 20
233.820593
 30
0.0
 10
556.230420
 20
232.196393
 30
0.0
 10
554.415484
 20
232.884704
 30
0.0
 10
554.608339
 20
234.883752
 30
0.0
 10
554.723168
 20
235.245763
 30
0.0
 10
555.354675
 20
236.642263
 30
0.0
 10
552.976838
 20
237.890263
 30
0.0
 10
552.186290
 20
236.577213
 30
0.0
 10
551.953589
 20
236.277083
 30
0.0
 10
550.417947
 20
234.982773
 30
0.0
 10
548.820472
 20
236.085424
 30
0.0
 10
549.486138
 20
237.980235
 30
0.0
 10
549.684258
 20
238.304243
 30
0.0
 10
550.631625
 20
239.509034
 30
0.0
 10
548.621559
 20
241.289823
 30
0.0
 10
547.539730
 20
240.204124
 30
0.0
 10
547.241968
 20
239.968393
 30
0.0
 10
545.441214
 20
239.079195
 30
0.0
 10
544.154043
 20
240.532114
 30
0.0
 10
545.253810
 20
242.212562
 30
0.0
 10
545.523711
 20
242.479744
 30
0.0
 10
546.731904
 20
243.422793
 30
0.0
 10
545.206370
 20
245.632884
 30
0.0
 10
543.896180
 20
244.837634
 30
0.0
 10
543.550660
 20
244.680014
 30
0.0
 10
541.589410
 20
244.247603
 30
0.0
 10
540.687366
 20
245.966333
 30
0.0
 10
542.157338
 20
247.334764
 30
0.0
 10
542.483331
 20
247.529584
 30
0.0
 10
543.882077
 20
248.156104
 30
0.0
 10
542.929815
 20
250.667053
 30
0.0
 10
541.467358
 20
250.208453
 30
0.0
 10
541.094163
 20
250.138154
 30
0.0
 10
539.086425
 20
250.187654
 30
0.0
 10
538.621896
 20
252.072324
 30
0.0
 10
540.376666
 20
253.049203
 30
0.0
 10
540.739806
 20
253.160343
 30
0.0
 10
542.247852
 20
253.433915
 30
0.0
 10
541.924161
 20
256.099793
 30
0.0
 10
540.394446
 20
256.004493
 30
0.0
 10
540.015271
 20
256.025501
 30
0.0
 10
538.077728
 20
256.554061
 30
0.0
 10
538.077728
 20
258.495121
 30
0.0
 10
540.015271
 20
259.023682
 30
0.0
 10
540.394446
 20
259.044690
 30
0.0
 10
541.924161
 20
258.949390
 30
0.0
 10
542.247852
 20
261.615268
 30
0.0
 10
540.739806
 20
261.888839
 30
0.0
 10
540.376666
 20
261.999980
 30
0.0
 10
538.621896
 20
262.976859
 30
0.0
 10
539.086425
 20
264.861528
 30
0.0
 10
541.094163
 20
264.911029
 30
0.0
 10
541.467358
 20
264.840729
 30
0.0
 10
542.929815
 20
264.382130
 30
0.0
 10
543.882077
 20
266.893078
 30
0.0
 10
542.483331
 20
267.519598
 30
0.0
 10
542.157338
 20
267.714419
 30
0.0
 10
540.687366
 20
269.082849
 30
0.0
 10
541.589410
 20
270.801579
 30
0.0
 10
543.550660
 20
270.369169
 30
0.0
 10
543.896180
 20
270.211549
 30
0.0
 10
545.206370
 20
269.416299
 30
0.0
 10
546.731904
 20
271.626389
 30
0.0
 10
545.523711
 20
272.569439
 30
0.0
 10
545.253810
 20
272.836619
 30
0.0
 10
544.154043
 20
274.517069
 30
0.0
 10
545.441214
 20
275.969989
 30
0.0
 10
547.241968
 20
275.080789
 30
0.0
 10
547.539730
 20
274.845059
 30
0.0
 10
548.621559
 20
273.759359
 30
0.0
 10
550.631625
 20
275.540149
 30
0.0
 10
549.684258
 20
276.744939
 30
0.0
 10
549.486138
 20
277.068949
 30
0.0
 10
548.820472
 20
278.963759
 30
0.0
 10
550.417947
 20
280.066409
 30
0.0
 10
551.953589
 20
278.772099
 30
0.0
 10
552.186290
 20
278.471969
 30
0.0
 10
552.976838
 20
277.158919
 30
0.0
 10
555.354675
 20
278.406919
 30
0.0
 10
554.723168
 20
279.803419
 30
0.0
 10
554.608339
 20
280.165429
 30
0.0
 10
554.415484
 20
282.164479
 30
0.0
 10
556.230420
 20
282.852789
 30
0.0
 10
557.411678
 20
281.228589
 30
0.0
 10
557.565798
 20
280.881489
 30
0.0
 10
558.019135
 20
279.417409
 30
0.0
 10
560.626551
 20
280.060079
 30
0.0
 10
560.347574
 20
281.567139
 30
0.0
 10
560.322704
 20
281.946099
 30
0.0
 10
560.613878
 20
283.933219
 30
0.0
 10
562.540785
 20
284.167189
 30
0.0
 10
563.299028
 20
282.307489
 30
0.0
 10
563.365624
 20
281.933599
 30
0.0
 10
563.455423
 20
280.403559
 30
0.0
 10
566.140891
 20
280.403559
 30
0.0
 10
566.230691
 20
281.933599
 30
0.0
 10
566.297286
 20
282.307489
 30
0.0
 10
567.055529
 20
284.167189
 30
0.0
 10
568.982437
 20
283.933219
 30
0.0
 10
569.273584
 20
281.946099
 30
0.0
 10
569.248713
 20
281.567139
 30
0.0
 10
568.969763
 20
280.060079
 30
0.0
 10
571.577179
 20
279.417409
 30
0.0
 10
572.030516
 20
280.881489
 30
0.0
 10
572.184636
 20
281.228589
 30
0.0
 10
573.365895
 20
282.852789
 30
0.0
 10
575.180830
 20
282.164479
 30
0.0
 10
574.987976
 20
280.165429
 30
0.0
 10
574.873146
 20
279.803419
 30
0.0
 10
574.241612
 20
278.406919
 30
0.0
 10
576.619476
 20
277.158919
 30
0.0
 10
577.410024
 20
278.471969
 30
0.0
 10
577.642725
 20
278.772099
 30
0.0
 10
579.178367
 20
280.066409
 30
0.0
 10
580.775842
 20
278.963759
 30
0.0
 10
580.110177
 20
277.068949
 30
0.0
 10
579.912057
 20
276.744939
 30
0.0
 10
578.964663
 20
275.540149
 30
0.0
 10
580.974756
 20
273.759359
 30
0.0
 10
582.056584
 20
274.845059
 30
0.0
 10
582.354346
 20
275.080789
 30
0.0
 10
584.155100
 20
275.969989
 30
0.0
 10
585.442272
 20
274.517069
 30
0.0
 10
584.342505
 20
272.836619
 30
0.0
 10
584.072603
 20
272.569439
 30
0.0
 10
582.864410
 20
271.626389
 30
0.0
 10
584.389944
 20
269.416299
 30
0.0
 10
585.700135
 20
270.211549
 30
0.0
 10
586.045654
 20
270.369169
 30
0.0
 10
588.006904
 20
270.801579
 30
0.0
 10
588.908948
 20
269.082849
 30
0.0
 10
587.438976
 20
267.714419
 30
0.0
 10
587.112983
 20
267.519598
 30
0.0
 10
585.714210
 20
266.893078
 30
0.0
 10
586.666499
 20
264.382130
 30
0.0
 10
588.128957
 20
264.840729
 30
0.0
 10
588.502151
 20
264.911029
 30
0.0
 10
590.509863
 20
264.861528
 30
0.0
 10
590.974418
 20
262.976859
 30
0.0
 10
589.219649
 20
261.999980
 30
0.0
 10
588.856508
 20
261.888839
 30
0.0
 10
587.348462
 20
261.615268
 30
0.0
 10
587.672154
 20
258.949390
 30
0.0
 10
589.201869
 20
259.044690
 30
0.0
 10
589.581043
 20
259.023682
 30
0.0
 10
591.518587
 20
258.495121
 30
0.0
 10
591.518587
 20
256.554061
 30
0.0
 10
589.581043
 20
256.025501
 30
0.0
 10
589.201869
 20
256.004493
 30
0.0
 10
587.672154
 20
256.099793
 30
0.0
 10
587.348462
 20
253.433915
 30
0.0
 10
588.856508
 20
253.160343
 30
0.0
 10
589.219649
 20
253.049203
 30
0.0
 10
590.974418
 20
252.072324
 30
0.0
 10
590.509863
 20
250.187654
 30
0.0
 10
588.502151
 20
250.138154
 30
0.0
 10
588.128957
 20
250.208453
 30
0.0
 10
586.666499
 20
250.667053
 30
0.0
 10
585.714210
 20
248.156104
 30
0.0
 10
587.112983
 20
247.529584
 30
0.0
 10
587.438976
 20
247.334764
 30
0.0
 10
588.908948
 20
245.966333
 30
0.0
 10
588.006904
 20
244.247603
 30
0.0
 10
586.045654
 20
244.680014
 30
0.0
 10
585.700135
 20
244.837634
 30
0.0
 10
584.389944
 20
245.632884
 30
0.0
 10
582.864410
 20
243.422793
 30
0.0
 10
584.072603
 20
242.479744
 30
0.0
 10
584.342505
 20
242.212562
 30
0.0
 10
585.442272
 20
240.532114
 30
0.0
 10
584.155100
 20
239.079195
 30
0.0
 10
582.354346
 20
239.968393
 30
0.0
 10
582.056584
 20
240.204124
 30
0.0
 10
580.974756
 20
241.289823
 30
0.0
 10
578.964663
 20
239.509034
 30
0.0
 10
579.912057
 20
238.304243
 30
0.0
 10
580.110177
 20
237.980235
 30
0.0
 10
580.775842
 20
236.085424
 30
0.0
 10
579.178367
 20
234.982773
 30
0.0
 10
577.642725
 20
236.277083
 30
0.0
 10
577.410024
 20
236.577213
 30
0.0
 10
576.619476
 20
237.890263
 30
0.0
 10
574.241612
 20
236.642263
 30
0.0
 10
574.873146
 20
235.245763
 30
0.0
 10
574.987976
 20
234.883752
 30
0.0
 10
575.180830
 20
232.884704
 30
0.0
 10
573.365895
 20
232.196393
 30
0.0
 10
572.184636
 20
233.820593
 30
0.0
 10
572.030516
 20
234.167695
 30
0.0
 10
571.577179
 20
235.631774
 30
0.0
 10
568.969763
 20
234.989104
 30
0.0
 10
569.248713
 20
233.482043
 30
0.0
 10
569.273584
 20
233.103083
 30
0.0
 10
568.982437
 20
231.115964
 30
0.0
 10
567.055529
 20
230.881993
 30
0.0
 10
566.297286
 20
232.741694
 30
0.0
 10
566.230691
 20
233.115584
 30
0.0
 10
566.140891
 20
234.645625
 30
0.0
 10
563.455423
 20
234.645625
 30
0.0
 10
563.365624
 20
233.115584
 30
0.0
 10
563.299028
 20
232.741694
 30
0.0
 10
562.540785
 20
230.881993
 30
0.0
 10
560.613878
 20
231.115964
 30
0.0
 10
560.322704
 20
233.103083
 30
0.0
 10
560.347574
 20
233.482043
 30
0.0
 10
560.626551
 20
234.989104
 30
0.0
 10
558.019135
 20
235.631774
 30
0.0
 10
557.565798
 20
234.167695
 30
0.0
 10
557.411678
 20
233.820593
 30
0.0
 10
556.230420
 20
232.196393
 30
0.0
 10
554.415484
 20
232.884704
 30
0.0
 10
554.608339
 20
234.883752
 30
0.0
 10
554.723168
 20
235.245763
 30
0.0
 10
555.354675
 20
236.642263
 30
0.0
 10
552.976838
 20
237.890263
 30
0.0
 10
552.186290
 20
236.577213
 30
0.0
 10
551.953589
 20
236.277083
 30
0.0
 10
550.417947
 20
234.982773
 30
0.0
 10
548.820472
 20
236.085424
 30
0.0
 10
549.486138
 20
237.980235
 30
0.0
 10
549.684258
 20
238.304243
 30
0.0
 10
550.631625
 20
239.509034
 30
0.0
 10
548.621559
 20
241.289823
 30
0.0
 10
547.539730
 20
240.204124
 30
0.0
 10
547.241968
 20
239.968393
 30
0.0
 10
545.441214
 20
239.079195
 30
0.0
 10
544.154043
 20
240.532114
 30
0.0
 10
545.253810
 20
242.212562
 30
0.0
 10
545.523711
 20
242.479744
 30
0.0
 10
546.731904
 20
243.422793
 30
0.0
 10
545.206370
 20
245.632884
 30
0.0
 10
543.896180
 20
244.837634
 30
0.0
 10
543.550660
 20
244.680014
 30
0.0
 10
541.589410
 20
244.247603
 30
0.0
 10
540.687366
 20
245.966333
 30
0.0
 10
542.157338
 20
247.334764
 30
0.0
 10
542.483331
 20
247.529584
 30
0.0
 10
543.882077
 20
248.156104
 30
0.0
 10
542.929815
 20
250.667053
 30
0.0
 10
541.467358
 20
250.208453
 30
0.0
 10
541.094163
 20
250.138154
 30
0.0
 10
539.086425
 20
250.187654
 30
0.0
 10
538.621896
 20
252.072324
 30
0.0
 10
540.376666
 20
253.049203
 30
0.0
 10
540.739806
 20
253.160343
 30
0.0
 10
542.247852
 20
253.433915
 30
0.0
 10
541.924161
 20
256.099793
 30
0.0
 10
540.394446
 20
256.004493
 30
0.0
 10
540.015271
 20
256.025501
 30
0.0
 10
538.077728
 20
256.554061
 30
0.0
 10
538.077728
 20
258.495121
 30
0.0
 10
540.015271
 20
259.023682
 30
0.0
 10
540.394446
 20
259.044690
 30
0.0
 10
541.924161
 20
258.949390
 30
0.0
 10
542.247852
 20
261.615268
 30
0.0
 10
540.739806
 20
261.888839
 30
0.0
 10
540.376666
 20
261.999980
 30
0.0
 10
538.621896
 20
262.976859
 30
0.0
 10
539.086425
 20
264.861528
 30
0.0
 10
541.094163
 20
264.911029
 30
0.0
 10
541.467358
 20
264.840729
 30
0.0
 10
542.929815
 20
264.382130
 30
0.0
 10
543.882077
 20
266.893078
 30
0.0
 10
542.483331
 20
267.519598
 30
0.0
 10
542.157338
 20
267.714419
 30
0.0
 10
540.687366
 20
269.082849
 30
0.0
 10
541.589410
 20
270.801579
 30
0.0
 10
543.550660
 20
270.369169
 30
0.0
 10
543.896180
 20
270.211549
 30
0.0
 10
545.206370
 20
269.416299
 30
0.0
 10
546.731904
 20
271.626389
 30
0.0
 10
545.523711
 20
272.569439
 30
0.0
 10
545.253810
 20
272.836619
 30
0.0
 10
544.154043
 20
274.517069
 30
0.0
 10
545.441214
 20
275.969989
 30
0.0
 10
547.241968
 20
275.080789
 30
0.0
 10
547.539730
 20
274.845059
 30
0.0
 10
548.621559
 20
273.759359
 30
0.0
 10
550.631625
 20
275.540149
 30
0.0
 10
549.684258
 20
276.744939
 30
0.0
 10
549.486138
 20
277.068949
 30
0.0
 10
548.820472
 20
278.963759
 30
0.0
 10
550.417947
 20
280.066409
 30
0.0
 10
551.953589
 20
278.772099
 30
0.0
 10
552.186290
 20
278.471969
 30
0.0
 10
552.976838
 20
277.158919
 30
0.0
 10
555.354675
 20
278.406919
 30
0.0
 10
554.723168
 20
279.803419
 30
0.0
 10
554.608339
 20
280.165429
 30
0.0
 10
554.415484
 20
282.164479
 30
0.0
 10
556.230420
 20
282.852789
 30
0.0
 10
557.411678
 20
281.228589
 30
0.0
 10
557.565798
 20
280.881489
 30
0.0
 10
558.019135
 20
279.417409
 30
0.0
 10
560.626551
 20
280.060079
 30
0.0
 10
560.347574
 20
281.567139
 30
0.0
 10
560.322704
 20
281.946099
 30
0.0
 10
560.613878
 20
283.933219
 30
0.0
 10
562.540785
 20
284.167189
 30
0.0
 10
563.299028
 20
282.307489
 30
0.0
 10
563.365624
 20
281.933599
 30
0.0
 10
563.455423
 20
280.403559
 30
0.0
 10
566.140891
 20
280.403559
 30
0.0
 10
566.230691
 20
281.933599
 30
0.0
 10
566.297286
 20
282.307489
 30
0.0
 10
567.055529
 20
284.167189
 30
0.0
 10
568.982437
 20
283.933219
 30
0.0
 10
569.273584
 20
281.946099
 30
0.0
 10
569.248713
 20
281.567139
 30
0.0
 10
568.969763
 20
280.060079
 30
0.0
 10
571.577179
 20
279.417409
 30
0.0
 10
572.030516
 20
280.881489
 30
0.0
 10
572.184636
 20
281.228589
 30
0.0
 10
573.365895
 20
282.852789
 30
0.0
 10
575.180830
 20
282.164479
 30
0.0
 10
574.987976
 20
280.165429
 30
0.0
 10
574.873146
 20
279.803419
 30
0.0
 10
574.241612
 20
278.406919
 30
0.0
 10
576.619476
 20
277.158919
 30
0.0
 10
577.410024
 20
278.471969
 30
0.0
 10
577.642725
 20
278.772099
 30
0.0
 10
579.178367
 20
280.066409
 30
0.0
 10
580.775842
 20
278.963759
 30
0.0
 10
580.110177
 20
277.068949
 30
0.0
 10
579.912057
 20
276.744939
 30
0.0
 10
578.964663
 20
275.540149
 30
0.0
 10
580.974756
 20
273.759359
 30
0.0
 10
582.056584
 20
274.845059
 30
0.0
 10
582.354346
 20
275.080789
 30
0.0
 10
584.155100
 20
275.969989
 30
0.0
 10
585.442272
 20
274.517069
 30
0.0
 10
584.342505
 20
272.836619
 30
0.0
 10
584.072603
 20
272.569439
 30
0.0
 10
582.864410
 20
271.626389
 30
0.0
 10
584.389944
 20
269.416299
 30
0.0
 10
585.700135
 20
270.211549
 30
0.0
 10
586.045654
 20
270.369169
 30
0.0
 10
588.006904
 20
270.801579
 30
0.0
 10
588.908948
 20
269.082849
 30
0.0
 10
587.438976
 20
267.714419
 30
0.0
 10
587.112983
 20
267.519598
 30
0.0
 10
585.714210
 20
266.893078
 30
0.0
 10
586.666499
 20
264.382130
 30
0.0
 10
588.128957
 20
264.840729
 30
0.0
 10
588.502151
 20
264.911029
 30
0.0
 10
590.509863
 20
264.861528
 30
0.0
 10
590.974418
 20
262.976859
 30
0.0
 10
589.219649
 20
261.999980
 30
0.0
 10
588.856508
 20
261.888839
 30
0.0
 10
587.348462
 20
261.615268
 30
0.0
  0
SPLINE
  5
1e3
100
AcDbEntity
  8
Layer_1
 62
7
100
AcDbSpline
 70
8
 71
3
 72
8
 73
4
 74
0
 40
0
 40
0
 40
0
 40
0
 40
1
 40
1
 40
1
 40
1
 10
618.387126
 20
277.244722
 30
0.0
 10
618.387126
 20
276.172906
 30
0.0
 10
617.815329
 20
275.182507
 30
0.0
 10
616.887125
 20
274.646599
 30
0.0
  0
SPLINE
  5
1e4
100
AcDbEntity
  8
Layer_1
 62
7
100
AcDbSpline
 70
8
 71
3
 72
8
 73
4
 74
0
 40
0
 40
0
 40
0
 40
0
 40
1
 40
1
 40
1
 40
1
 10
616.887125
 20
274.646599
 30
0.0
 10
615.958922
 20
274.110691
 30
0.0
 10
614.815329
 20
274.110691
 30
0.0
 10
613.887125
 20
274.646599
 30
0.0
  0
SPLINE
  5
1e5
100
AcDbEntity
  8
Layer_1
 62
7
100
AcDbSpline
 70
8
 71
3
 72
8
 73
4
 74
0
 40
0
 40
0
 40
0
 40
0
 40
1
 40
1
 40
1
 40
1
 10
613.887125
 20
274.646599
 30
0.0
 10
612.958922
 20
275.182507
 30
0.0
 10
612.387125
 20
276.172906
 30
0.0
 10
612.387125
 20
277.244722
 30
0.0
  0
SPLINE
  5
1e6
100
AcDbEntity
  8
Layer_1
 62
7
100
AcDbSpline
 70
8
 71
3
 72
8
 73
4
 74
0
 40
0
 40
0
 40
0
 40
0
 40
1
 40
1
 40
1
 40
1
 10
612.387125
 20
277.244722
 30
0.0
 10
612.387125
 20
278.316538
 30
0.0
 10
612.958922
 20
279.306937
 30
0.0
 10
613.887125
 20
279.842845
 30
0.0
  0
SPLINE
  5
1e7
100
AcDbEntity
  8
Layer_1
 62
7
100
AcDbSpline
 70
8
 71
3
 72
8
 73
4
 74
0
 40
0
 40
0
 40
0
 40
0
 40
1
 40
1
 40
1
 40
1
 10
613.887125
 20
279.842845
 30
0.0
 10
614.815329
 20
280.378753
 30
0.0
 10
615.958922
 20
280.378753
 30
0.0
 10
616.887125
 20
279.842845
 30
0.0
  0
SPLINE
  5
1e8
100
AcDbEntity
  8
Layer_1
 62
7
100
AcDbSpline
 70
8
 71
3
 72
8
 73
4
 74
0
 40
0
 40
0
 40
0
 40
0
 40
1
 40
1
 40
1
 40
1
 10
616.887125
 20
279.842845
 30
0.0
 10
617.815329
 20
279.306937
 30
0.0
 10
618.387126
 20
278.316538
 30
0.0
 10
618.387126
 20
277.244722
 30
0.0
  0
LWPOLYLINE
  5
1e9
100
AcDbEntity
  8
Layer_1
 62
7
100
AcDbPolyline
 90
208
 70
1
 10
644.728015
 20
261.154866
 30
0.0
 10
646.257730
 20
261.250167
 30
0.0
 10
646.636904
 20
261.229159
 30
0.0
 10
648.574448
 20
260.700598
 30
0.0
 10
648.574448
 20
258.759538
 30
0.0
 10
646.636904
 20
258.230977
 30
0.0
 10
646.257730
 20
258.209969
 30
0.0
 10
644.728015
 20
258.305270
 30
0.0
 10
644.404324
 20
255.639391
 30
0.0
 10
645.912369
 20
255.365820
 30
0.0
 10
646.275510
 20
255.254679
 30
0.0
 10
648.030253
 20
254.277801
 30
0.0
 10
647.565750
 20
252.393131
 30
0.0
 10
645.558013
 20
252.343630
 30
0.0
 10
645.184791
 20
252.413930
 30
0.0
 10
643.722360
 20
252.872530
 30
0.0
 10
642.770072
 20
250.361581
 30
0.0
 10
644.168844
 20
249.735061
 30
0.0
 10
644.494838
 20
249.540240
 30
0.0
 10
645.964810
 20
248.171810
 30
0.0
 10
645.062766
 20
246.453079
 30
0.0
 10
643.101515
 20
246.885490
 30
0.0
 10
642.755996
 20
247.043111
 30
0.0
 10
641.445806
 20
247.838361
 30
0.0
 10
639.920271
 20
245.628270
 30
0.0
 10
641.128464
 20
244.685221
 30
0.0
 10
641.398366
 20
244.418039
 30
0.0
 10
642.498133
 20
242.737591
 30
0.0
 10
641.210961
 20
241.284671
 30
0.0
 10
639.410207
 20
242.173870
 30
0.0
 10
639.112445
 20
242.409600
 30
0.0
 10
638.030617
 20
243.495300
 30
0.0
 10
636.020524
 20
241.714511
 30
0.0
 10
636.967918
 20
240.509720
 30
0.0
 10
637.166038
 20
240.185711
 30
0.0
 10
637.831703
 20
238.290900
 30
0.0
 10
636.234228
 20
237.188249
 30
0.0
 10
634.698587
 20
238.482559
 30
0.0
 10
634.465886
 20
238.782689
 30
0.0
 10
633.675337
 20
240.095740
 30
0.0
 10
631.297474
 20
238.847740
 30
0.0
 10
631.929008
 20
237.451240
 30
0.0
 10
632.043837
 20
237.089229
 30
0.0
 10
632.236692
 20
235.090180
 30
0.0
 10
630.421756
 20
234.401869
 30
0.0
 10
629.240497
 20
236.026070
 30
0.0
 10
629.086377
 20
236.373171
 30
0.0
 10
628.633040
 20
237.837251
 30
0.0
 10
626.025624
 20
237.194581
 30
0.0
 10
626.304575
 20
235.687519
 30
0.0
 10
626.329445
 20
235.308559
 30
0.0
 10
626.038298
 20
233.321441
 30
0.0
 10
624.111390
 20
233.087470
 30
0.0
 10
623.353147
 20
234.947170
 30
0.0
 10
623.286552
 20
235.321061
 30
0.0
 10
623.196752
 20
236.851101
 30
0.0
 10
620.511284
 20
236.851101
 30
0.0
 10
620.421485
 20
235.321061
 30
0.0
 10
620.354889
 20
234.947170
 30
0.0
 10
619.596646
 20
233.087470
 30
0.0
 10
617.669739
 20
233.321441
 30
0.0
 10
617.378565
 20
235.308559
 30
0.0
 10
617.403436
 20
235.687519
 30
0.0
 10
617.682412
 20
237.194581
 30
0.0
 10
615.074996
 20
237.837251
 30
0.0
 10
614.621659
 20
236.373171
 30
0.0
 10
614.467540
 20
236.026070
 30
0.0
 10
613.286281
 20
234.401869
 30
0.0
 10
611.471345
 20
235.090180
 30
0.0
 10
611.664200
 20
237.089229
 30
0.0
 10
611.779029
 20
237.451240
 30
0.0
 10
612.410536
 20
238.847740
 30
0.0
 10
610.032700
 20
240.095740
 30
0.0
 10
609.242151
 20
238.782689
 30
0.0
 10
609.009450
 20
238.482559
 30
0.0
 10
607.473808
 20
237.188249
 30
0.0
 10
605.876334
 20
238.290900
 30
0.0
 10
606.541999
 20
240.185711
 30
0.0
 10
606.740119
 20
240.509720
 30
0.0
 10
607.687486
 20
241.714511
 30
0.0
 10
605.677420
 20
243.495300
 30
0.0
 10
604.595591
 20
242.409600
 30
0.0
 10
604.297829
 20
242.173870
 30
0.0
 10
602.497075
 20
241.284671
 30
0.0
 10
601.209904
 20
242.737591
 30
0.0
 10
602.309671
 20
244.418039
 30
0.0
 10
602.579572
 20
244.685221
 30
0.0
 10
603.787766
 20
245.628270
 30
0.0
 10
602.262231
 20
247.838361
 30
0.0
 10
600.952041
 20
247.043111
 30
0.0
 10
600.606521
 20
246.885490
 30
0.0
 10
598.645271
 20
246.453079
 30
0.0
 10
597.743227
 20
248.171810
 30
0.0
 10
599.213199
 20
249.540240
 30
0.0
 10
599.539192
 20
249.735061
 30
0.0
 10
600.937939
 20
250.361581
 30
0.0
 10
599.985677
 20
252.872530
 30
0.0
 10
598.523219
 20
252.413930
 30
0.0
 10
598.150024
 20
252.343630
 30
0.0
 10
596.142286
 20
252.393131
 30
0.0
 10
595.677757
 20
254.277801
 30
0.0
 10
597.432527
 20
255.254679
 30
0.0
 10
597.795668
 20
255.365820
 30
0.0
 10
599.303713
 20
255.639391
 30
0.0
 10
598.980022
 20
258.305270
 30
0.0
 10
597.450307
 20
258.209969
 30
0.0
 10
597.071133
 20
258.230977
 30
0.0
 10
595.133589
 20
258.759538
 30
0.0
 10
595.133589
 20
260.700598
 30
0.0
 10
597.071133
 20
261.229159
 30
0.0
 10
597.450307
 20
261.250167
 30
0.0
 10
598.980022
 20
261.154866
 30
0.0
 10
599.303713
 20
263.820745
 30
0.0
 10
597.795668
 20
264.094319
 30
0.0
 10
597.432527
 20
264.205457
 30
0.0
 10
595.677757
 20
265.182338
 30
0.0
 10
596.142286
 20
267.067008
 30
0.0
 10
598.150024
 20
267.116508
 30
0.0
 10
598.523219
 20
267.046209
 30
0.0
 10
599.985677
 20
266.587606
 30
0.0
 10
600.937939
 20
269.098558
 30
0.0
 10
599.539192
 20
269.725078
 30
0.0
 10
599.213199
 20
269.919898
 30
0.0
 10
597.743227
 20
271.288327
 30
0.0
 10
598.645271
 20
273.007057
 30
0.0
 10
600.606521
 20
272.574647
 30
0.0
 10
600.952041
 20
272.417027
 30
0.0
 10
602.262231
 20
271.621777
 30
0.0
 10
603.787766
 20
273.831867
 30
0.0
 10
602.579572
 20
274.774917
 30
0.0
 10
602.309671
 20
275.042097
 30
0.0
 10
601.209904
 20
276.722547
 30
0.0
 10
602.497075
 20
278.175467
 30
0.0
 10
604.297829
 20
277.286267
 30
0.0
 10
604.595591
 20
277.050537
 30
0.0
 10
605.677420
 20
275.964837
 30
0.0
 10
607.687486
 20
277.745627
 30
0.0
 10
606.740119
 20
278.950417
 30
0.0
 10
606.541999
 20
279.274427
 30
0.0
 10
605.876334
 20
281.169237
 30
0.0
 10
607.473808
 20
282.271887
 30
0.0
 10
609.009450
 20
280.977577
 30
0.0
 10
609.242151
 20
280.677447
 30
0.0
 10
610.032700
 20
279.364397
 30
0.0
 10
612.410536
 20
280.612397
 30
0.0
 10
611.779029
 20
282.008897
 30
0.0
 10
611.664200
 20
282.370907
 30
0.0
 10
611.471345
 20
284.369957
 30
0.0
 10
613.286281
 20
285.058267
 30
0.0
 10
614.467540
 20
283.434067
 30
0.0
 10
614.621659
 20
283.086967
 30
0.0
 10
615.074996
 20
281.622887
 30
0.0
 10
617.682412
 20
282.265557
 30
0.0
 10
617.403436
 20
283.772617
 30
0.0
 10
617.378565
 20
284.151577
 30
0.0
 10
617.669739
 20
286.138697
 30
0.0
 10
619.596646
 20
286.372667
 30
0.0
 10
620.354889
 20
284.512967
 30
0.0
 10
620.421485
 20
284.139077
 30
0.0
 10
620.511284
 20
282.609037
 30
0.0
 10
623.196752
 20
282.609037
 30
0.0
 10
623.286552
 20
284.139077
 30
0.0
 10
623.353147
 20
284.512967
 30
0.0
 10
624.111390
 20
286.372667
 30
0.0
 10
626.038298
 20
286.138697
 30
0.0
 10
626.329445
 20
284.151577
 30
0.0
 10
626.304575
 20
283.772617
 30
0.0
 10
626.025624
 20
282.265557
 30
0.0
 10
628.633040
 20
281.622887
 30
0.0
 10
629.086377
 20
283.086967
 30
0.0
 10
629.240497
 20
283.434067
 30
0.0
 10
630.421756
 20
285.058267
 30
0.0
 10
632.236692
 20
284.369957
 30
0.0
 10
632.043837
 20
282.370907
 30
0.0
 10
631.929008
 20
282.008897
 30
0.0
 10
631.297474
 20
280.612397
 30
0.0
 10
633.675337
 20
279.364397
 30
0.0
 10
634.465886
 20
280.677447
 30
0.0
 10
634.698587
 20
280.977577
 30
0.0
 10
636.234228
 20
282.271887
 30
0.0
 10
637.831703
 20
281.169237
 30
0.0
 10
637.166038
 20
279.274427
 30
0.0
 10
636.967918
 20
278.950417
 30
0.0
 10
636.020524
 20
277.745627
 30
0.0
 10
638.030617
 20
275.964837
 30
0.0
 10
639.112445
 20
277.050537
 30
0.0
 10
639.410207
 20
277.286267
 30
0.0
 10
641.210961
 20
278.175467
 30
0.0
 10
642.498133
 20
276.722547
 30
0.0
 10
641.398366
 20
275.042097
 30
0.0
 10
641.128464
 20
274.774917
 30
0.0
 10
639.920271
 20
273.831867
 30
0.0
 10
641.445806
 20
271.621777
 30
0.0
 10
642.755996
 20
272.417027
 30
0.0
 10
643.101515
 20
272.574647
 30
0.0
 10
645.062766
 20
273.007057
 30
0.0
 10
645.964810
 20
271.288327
 30
0.0
 10
644.494837
 20
269.919898
 30
0.0
 10
644.168844
 20
269.725078
 30
0.0
 10
642.770072
 20
269.098558
 30
0.0
 10
643.722360
 20
266.587606
 30
0.0
 10
645.184791
 20
267.046209
 30
0.0
 10
645.558013
 20
267.116508
 30
0.0
 10
647.565750
 20
267.067008
 30
0.0
 10
648.030253
 20
265.182338
 30
0.0
 10
646.275510
 20
264.205457
 30
0.0
 10
645.912369
 20
264.094319
 30
0.0
 10
644.404324
 20
263.820745
 30
0.0
  0
SPLINE
  5
1ea
100
AcDbEntity
  8
Layer_1
 62
7
100
AcDbSpline
 70
8
 71
3
 72
8
 73
4
 74
0
 40
0
 40
0
 40
0
 40
0
 40
1
 40
1
 40
1
 40
1
 10
632.451370
 20
242.918333
 30
0.0
 10
632.451370
 20
241.846517
 30
0.0
 10
631.879573
 20
240.856118
 30
0.0
 10
630.951370
 20
240.320210
 30
0.0
  0
SPLINE
  5
1eb
100
AcDbEntity
  8
Layer_1
 62
7
100
AcDbSpline
 70
8
 71
3
 72
8
 73
4
 74
0
 40
0
 40
0
 40
0
 40
0
 40
1
 40
1
 40
1
 40
1
 10
630.951370
 20
240.320210
 30
0.0
 10
630.023167
 20
239.784302
 30
0.0
 10
628.879573
 20
239.784302
 30
0.0
 10
627.951370
 20
240.320210
 30
0.0
  0
SPLINE
  5
1ec
100
AcDbEntity
  8
Layer_1
 62
7
100
AcDbSpline
 70
8
 71
3
 72
8
 73
4
 74
0
 40
0
 40
0
 40
0
 40
0
 40
1
 40
1
 40
1
 40
1
 10
627.951370
 20
240.320210
 30
0.0
 10
627.023167
 20
240.856118
 30
0.0
 10
626.451370
 20
241.846517
 30
0.0
 10
626.451370
 20
242.918333
 30
0.0
  0
SPLINE
  5
1ed
100
AcDbEntity
  8
Layer_1
 62
7
100
AcDbSpline
 70
8
 71
3
 72
8
 73
4
 74
0
 40
0
 40
0
 40
0
 40
0
 40
1
 40
1
 40
1
 40
1
 10
626.451370
 20
242.918333
 30
0.0
 10
626.451370
 20
243.990149
 30
0.0
 10
627.023167
 20
244.980548
 30
0.0
 10
627.951370
 20
245.516456
 30
0.0
  0
SPLINE
  5
1ee
100
AcDbEntity
  8
Layer_1
 62
7
100
AcDbSpline
 70
8
 71
3
 72
8
 73
4
 74
0
 40
0
 40
0
 40
0
 40
0
 40
1
 40
1
 40
1
 40
1
 10
627.951370
 20
245.516456
 30
0.0
 10
628.879573
 20
246.052364
 30
0.0
 10
630.023167
 20
246.052364
 30
0.0
 10
630.951370
 20
245.516456
 30
0.0
  0
SPLINE
  5
1ef
100
AcDbEntity
  8
Layer_1
 62
7
100
AcDbSpline
 70
8
 71
3
 72
8
 73
4
 74
0
 40
0
 40
0
 40
0
 40
0
 40
1
 40
1
 40
1
 40
1
 10
630.951370
 20
245.516456
 30
0.0
 10
631.879573
 20
244.980548
 30
0.0
 10
632.451370
 20
243.990149
 30
0.0
 10
632.451370
 20
242.918333
 30
0.0
  0
LWPOLYLINE
  5
1f0
100
AcDbEntity
  8
Layer_1
 62
7
100
AcDbPolyline
 90
1
 70
1
 10
618.387126
 20
277.244722
 30
0.0
  0
SPLINE
  5
1f1
100
AcDbEntity
  8
Layer_1
 62
7
100
AcDbSpline
 70
8
 71
3
 72
8
 73
4
 74
0
 40
0
 40
0
 40
0
 40
0
 40
1
 40
1
 40
1
 40
1
 10
521.578370
 20
259.253301
 30
0.0
 10
521.578370
 20
258.628085
 30
0.0
 10
521.244836
 20
258.050365
 30
0.0
 10
520.703366
 20
257.737757
 30
0.0
  0
SPLINE
  5
1f2
100
AcDbEntity
  8
Layer_1
 62
7
100
AcDbSpline
 70
8
 71
3
 72
8
 73
4
 74
0
 40
0
 40
0
 40
0
 40
0
 40
1
 40
1
 40
1
 40
1
 10
520.703366
 20
257.737757
 30
0.0
 10
520.161923
 20
257.425149
 30
0.0
 10
519.494829
 20
257.425149
 30
0.0
 10
518.953359
 20
257.737757
 30
0.0
  0
SPLINE
  5
1f3
100
AcDbEntity
  8
Layer_1
 62
7
100
AcDbSpline
 70
8
 71
3
 72
8
 73
4
 74
0
 40
0
 40
0
 40
0
 40
0
 40
1
 40
1
 40
1
 40
1
 10
518.953359
 20
257.737757
 30
0.0
 10
518.411916
 20
258.050365
 30
0.0
 10
518.078382
 20
258.628085
 30
0.0
 10
518.078382
 20
259.253301
 30
0.0
  0
SPLINE
  5
1f4
100
AcDbEntity
  8
Layer_1
 62
7
100
AcDbSpline
 70
8
 71
3
 72
8
 73
4
 74
0
 40
0
 40
0
 40
0
 40
0
 40
1
 40
1
 40
1
 40
1
 10
518.078382
 20
259.253301
 30
0.0
 10
518.078382
 20
259.878516
 30
0.0
 10
518.411916
 20
260.456237
 30
0.0
 10
518.953359
 20
260.768845
 30
0.0
  0
SPLINE
  5
1f5
100
AcDbEntity
  8
Layer_1
 62
7
100
AcDbSpline
 70
8
 71
3
 72
8
 73
4
 74
0
 40
0
 40
0
 40
0
 40
0
 40
1
 40
1
 40
1
 40
1
 10
518.953359
 20
260.768845
 30
0.0
 10
519.494829
 20
261.081452
 30
0.0
 10
520.161923
 20
261.081452
 30
0.0
 10
520.703366
 20
260.768845
 30
0.0
  0
SPLINE
  5
1f6
100
AcDbEntity
  8
Layer_1
 62
7
100
AcDbSpline
 70
8
 71
3
 72
8
 73
4
 74
0
 40
0
 40
0
 40
0
 40
0
 40
1
 40
1
 40
1
 40
1
 10
520.703366
 20
260.768845
 30
0.0
 10
521.244836
 20
260.456237
 30
0.0
 10
521.578370
 20
259.878516
 30
0.0
 10
521.578370
 20
259.253301
 30
0.0
  0
SPLINE
  5
1f7
100
AcDbEntity
  8
Layer_1
 62
7
100
AcDbSpline
 70
8
 71
3
 72
8
 73
4
 74
0
 40
0
 40
0
 40
0
 40
0
 40
1
 40
1
 40
1
 40
1
 10
534.334535
 20
259.300643
 30
0.0
 10
534.334535
 20
254.114532
 30
0.0
 10
531.567778
 20
249.322368
 30
0.0
 10
527.076475
 20
246.729313
 30
0.0
  0
SPLINE
  5
1f8
100
AcDbEntity
  8
Layer_1
 62
7
100
AcDbSpline
 70
8
 71
3
 72
8
 73
4
 74
0
 40
0
 40
0
 40
0
 40
0
 40
1
 40
1
 40
1
 40
1
 10
527.076475
 20
246.729313
 30
0.0
 10
522.585171
 20
244.136258
 30
0.0
 10
517.051657
 20
244.136258
 30
0.0
 10
512.560354
 20
246.729313
 30
0.0
  0
SPLINE
  5
1f9
100
AcDbEntity
  8
Layer_1
 62
7
100
AcDbSpline
 70
8
 71
3
 72
8
 73
4
 74
0
 40
0
 40
0
 40
0
 40
0
 40
1
 40
1
 40
1
 40
1
 10
512.560354
 20
246.729313
 30
0.0
 10
508.069051
 20
249.322368
 30
0.0
 10
505.302294
 20
254.114532
 30
0.0
 10
505.302294
 20
259.300643
 30
0.0
  0
SPLINE
  5
1fa
100
AcDbEntity
  8
Layer_1
 62
7
100
AcDbSpline
 70
8
 71
3
 72
8
 73
4
 74
0
 40
0
 40
0
 40
0
 40
0
 40
1
 40
1
 40
1
 40
1
 10
505.302294
 20
259.300643
 30
0.0
 10
505.302294
 20
264.486753
 30
0.0
 10
508.069051
 20
269.278917
 30
0.0
 10
512.560354
 20
271.871972
 30
0.0
  0
SPLINE
  5
1fb
100
AcDbEntity
  8
Layer_1
 62
7
100
AcDbSpline
 70
8
 71
3
 72
8
 73
4
 74
0
 40
0
 40
0
 40
0
 40
0
 40
1
 40
1
 40
1
 40
1
 10
512.560354
 20
271.871972
 30
0.0
 10
517.051657
 20
274.465027
 30
0.0
 10
522.585171
 20
274.465027
 30
0.0
 10
527.076475
 20
271.871972
 30
0.0
  0
SPLINE
  5
1fc
100
AcDbEntity
  8
Layer_1
 62
7
100
AcDbSpline
 70
8
 71
3
 72
8
 73
4
 74
0
 40
0
 40
0
 40
0
 40
0
 40
1
 40
1
 40
1
 40
1
 10
527.076475
 20
271.871972
 30
0.0
 10
531.567778
 20
269.278917
 30
0.0
 10
534.334535
 20
264.486753
 30
0.0
 10
534.334535
 20
259.300643
 30
0.0
  0
LWPOLYLINE
  5
1fd
100
AcDbEntity
  8
Layer_1
 62
7
100
AcDbPolyline
 90
1
 70
1
 10
632.451370
 20
242.918333
 30
0.0
  0
SPLINE
  5
1fe
100
AcDbEntity
  8
Layer_1
 62
7
100
AcDbSpline
 70
8
 71
3
 72
8
 73
4
 74
0
 40
0
 40
0
 40
0
 40
0
 40
1
 40
1
 40
1
 40
1
 10
347.148530
 20
159.192830
 30
0.0
 10
347.148530
 20
158.567615
 30
0.0
 10
346.814982
 20
157.989893
 30
0.0
 10
346.273530
 20
157.677286
 30
0.0
  0
SPLINE
  5
1ff
100
AcDbEntity
  8
Layer_1
 62
7
100
AcDbSpline
 70
8
 71
3
 72
8
 73
4
 74
0
 40
0
 40
0
 40
0
 40
0
 40
1
 40
1
 40
1
 40
1
 10
346.273530
 20
157.677286
 30
0.0
 10
345.732078
 20
157.364678
 30
0.0
 10
345.064982
 20
157.364678
 30
0.0
 10
344.523530
 20
157.677286
 30
0.0
  0
SPLINE
  5
200
100
AcDbEntity
  8
Layer_1
 62
7
100
AcDbSpline
 70
8
 71
3
 72
8
 73
4
 74
0
 40
0
 40
0
 40
0
 40
0
 40
1
 40
1
 40
1
 40
1
 10
344.523530
 20
157.677286
 30
0.0
 10
343.982078
 20
157.989893
 30
0.0
 10
343.648530
 20
158.567615
 30
0.0
 10
343.648530
 20
159.192830
 30
0.0
  0
SPLINE
  5
201
100
AcDbEntity
  8
Layer_1
 62
7
100
AcDbSpline
 70
8
 71
3
 72
8
 73
4
 74
0
 40
0
 40
0
 40
0
 40
0
 40
1
 40
1
 40
1
 40
1
 10
343.648530
 20
159.192830
 30
0.0
 10
343.648530
 20
159.818045
 30
0.0
 10
343.982078
 20
160.395767
 30
0.0
 10
344.523530
 20
160.708374
 30
0.0
  0
SPLINE
  5
202
100
AcDbEntity
  8
Layer_1
 62
7
100
AcDbSpline
 70
8
 71
3
 72
8
 73
4
 74
0
 40
0
 40
0
 40
0
 40
0
 40
1
 40
1
 40
1
 40
1
 10
344.523530
 20
160.708374
 30
0.0
 10
345.064982
 20
161.020982
 30
0.0
 10
345.732078
 20
161.020982
 30
0.0
 10
346.273530
 20
160.708374
 30
0.0
  0
SPLINE
  5
203
100
AcDbEntity
  8
Layer_1
 62
7
100
AcDbSpline
 70
8
 71
3
 72
8
 73
4
 74
0
 40
0
 40
0
 40
0
 40
0
 40
1
 40
1
 40
1
 40
1
 10
346.273530
 20
160.708374
 30
0.0
 10
346.814982
 20
160.395767
 30
0.0
 10
347.148530
 20
159.818045
 30
0.0
 10
347.148530
 20
159.192830
 30
0.0
  0
SPLINE
  5
204
100
AcDbEntity
  8
Layer_1
 62
7
100
AcDbSpline
 70
8
 71
3
 72
8
 73
4
 74
0
 40
0
 40
0
 40
0
 40
0
 40
1
 40
1
 40
1
 40
1
 10
278.886410
 20
58.985140
 30
0.0
 10
278.886410
 20
58.359925
 30
0.0
 10
278.552862
 20
57.782203
 30
0.0
 10
278.011410
 20
57.469596
 30
0.0
  0
SPLINE
  5
205
100
AcDbEntity
  8
Layer_1
 62
7
100
AcDbSpline
 70
8
 71
3
 72
8
 73
4
 74
0
 40
0
 40
0
 40
0
 40
0
 40
1
 40
1
 40
1
 40
1
 10
278.011410
 20
57.469596
 30
0.0
 10
277.469958
 20
57.156988
 30
0.0
 10
276.802862
 20
57.156988
 30
0.0
 10
276.261410
 20
57.469596
 30
0.0
  0
SPLINE
  5
206
100
AcDbEntity
  8
Layer_1
 62
7
100
AcDbSpline
 70
8
 71
3
 72
8
 73
4
 74
0
 40
0
 40
0
 40
0
 40
0
 40
1
 40
1
 40
1
 40
1
 10
276.261410
 20
57.469596
 30
0.0
 10
275.719958
 20
57.782203
 30
0.0
 10
275.386410
 20
58.359925
 30
0.0
 10
275.386410
 20
58.985140
 30
0.0
  0
SPLINE
  5
207
100
AcDbEntity
  8
Layer_1
 62
7
100
AcDbSpline
 70
8
 71
3
 72
8
 73
4
 74
0
 40
0
 40
0
 40
0
 40
0
 40
1
 40
1
 40
1
 40
1
 10
275.386410
 20
58.985140
 30
0.0
 10
275.386410
 20
59.610355
 30
0.0
 10
275.719958
 20
60.188077
 30
0.0
 10
276.261410
 20
60.500684
 30
0.0
  0
SPLINE
  5
208
100
AcDbEntity
  8
Layer_1
 62
7
100
AcDbSpline
 70
8
 71
3
 72
8
 73
4
 74
0
 40
0
 40
0
 40
0
 40
0
 40
1
 40
1
 40
1
 40
1
 10
276.261410
 20
60.500684
 30
0.0
 10
276.802862
 20
60.813292
 30
0.0
 10
277.469958
 20
60.813292
 30
0.0
 10
278.011410
 20
60.500684
 30
0.0
  0
SPLINE
  5
209
100
AcDbEntity
  8
Layer_1
 62
7
100
AcDbSpline
 70
8
 71
3
 72
8
 73
4
 74
0
 40
0
 40
0
 40
0
 40
0
 40
1
 40
1
 40
1
 40
1
 10
278.011410
 20
60.500684
 30
0.0
 10
278.552862
 20
60.188077
 30
0.0
 10
278.886410
 20
59.610355
 30
0.0
 10
278.886410
 20
58.985140
 30
0.0
  0
SPLINE
  5
20a
100
AcDbEntity
  8
Layer_1
 62
7
100
AcDbSpline
 70
8
 71
3
 72
8
 73
4
 74
0
 40
0
 40
0
 40
0
 40
0
 40
1
 40
1
 40
1
 40
1
 10
415.572080
 20
259.327290
 30
0.0
 10
415.572080
 20
258.702075
 30
0.0
 10
415.238532
 20
258.124353
 30
0.0
 10
414.697080
 20
257.811746
 30
0.0
  0
SPLINE
  5
20b
100
AcDbEntity
  8
Layer_1
 62
7
100
AcDbSpline
 70
8
 71
3
 72
8
 73
4
 74
0
 40
0
 40
0
 40
0
 40
0
 40
1
 40
1
 40
1
 40
1
 10
414.697080
 20
257.811746
 30
0.0
 10
414.155628
 20
257.499138
 30
0.0
 10
413.488532
 20
257.499138
 30
0.0
 10
412.947080
 20
257.811746
 30
0.0
  0
SPLINE
  5
20c
100
AcDbEntity
  8
Layer_1
 62
7
100
AcDbSpline
 70
8
 71
3
 72
8
 73
4
 74
0
 40
0
 40
0
 40
0
 40
0
 40
1
 40
1
 40
1
 40
1
 10
412.947080
 20
257.811746
 30
0.0
 10
412.405628
 20
258.124353
 30
0.0
 10
412.072080
 20
258.702075
 30
0.0
 10
412.072080
 20
259.327290
 30
0.0
  0
SPLINE
  5
20d
100
AcDbEntity
  8
Layer_1
 62
7
100
AcDbSpline
 70
8
 71
3
 72
8
 73
4
 74
0
 40
0
 40
0
 40
0
 40
0
 40
1
 40
1
 40
1
 40
1
 10
412.072080
 20
259.327290
 30
0.0
 10
412.072080
 20
259.952505
 30
0.0
 10
412.405628
 20
260.530227
 30
0.0
 10
412.947080
 20
260.842834
 30
0.0
  0
SPLINE
  5
20e
100
AcDbEntity
  8
Layer_1
 62
7
100
AcDbSpline
 70
8
 71
3
 72
8
 73
4
 74
0
 40
0
 40
0
 40
0
 40
0
 40
1
 40
1
 40
1
 40
1
 10
412.947080
 20
260.842834
 30
0.0
 10
413.488532
 20
261.155442
 30
0.0
 10
414.155628
 20
261.155442
 30
0.0
 10
414.697080
 20
260.842834
 30
0.0
  0
SPLINE
  5
20f
100
AcDbEntity
  8
Layer_1
 62
7
100
AcDbSpline
 70
8
 71
3
 72
8
 73
4
 74
0
 40
0
 40
0
 40
0
 40
0
 40
1
 40
1
 40
1
 40
1
 10
414.697080
 20
260.842834
 30
0.0
 10
415.238532
 20
260.530227
 30
0.0
 10
415.572080
 20
259.952505
 30
0.0
 10
415.572080
 20
259.327290
 30
0.0
  0
SPLINE
  5
210
100
AcDbEntity
  8
Layer_1
 62
7
100
AcDbSpline
 70
8
 71
3
 72
8
 73
4
 74
0
 40
0
 40
0
 40
0
 40
0
 40
1
 40
1
 40
1
 40
1
 10
399.682980
 20
49.781850
 30
0.0
 10
399.682980
 20
49.156635
 30
0.0
 10
399.349432
 20
48.578913
 30
0.0
 10
398.807980
 20
48.266306
 30
0.0
  0
SPLINE
  5
211
100
AcDbEntity
  8
Layer_1
 62
7
100
AcDbSpline
 70
8
 71
3
 72
8
 73
4
 74
0
 40
0
 40
0
 40
0
 40
0
 40
1
 40
1
 40
1
 40
1
 10
398.807980
 20
48.266306
 30
0.0
 10
398.266528
 20
47.953698
 30
0.0
 10
397.599432
 20
47.953698
 30
0.0
 10
397.057980
 20
48.266306
 30
0.0
  0
SPLINE
  5
212
100
AcDbEntity
  8
Layer_1
 62
7
100
AcDbSpline
 70
8
 71
3
 72
8
 73
4
 74
0
 40
0
 40
0
 40
0
 40
0
 40
1
 40
1
 40
1
 40
1
 10
397.057980
 20
48.266306
 30
0.0
 10
396.516528
 20
48.578913
 30
0.0
 10
396.182980
 20
49.156635
 30
0.0
 10
396.182980
 20
49.781850
 30
0.0
  0
SPLINE
  5
213
100
AcDbEntity
  8
Layer_1
 62
7
100
AcDbSpline
 70
8
 71
3
 72
8
 73
4
 74
0
 40
0
 40
0
 40
0
 40
0
 40
1
 40
1
 40
1
 40
1
 10
396.182980
 20
49.781850
 30
0.0
 10
396.182980
 20
50.407065
 30
0.0
 10
396.516528
 20
50.984787
 30
0.0
 10
397.057980
 20
51.297394
 30
0.0
  0
SPLINE
  5
214
100
AcDbEntity
  8
Layer_1
 62
7
100
AcDbSpline
 70
8
 71
3
 72
8
 73
4
 74
0
 40
0
 40
0
 40
0
 40
0
 40
1
 40
1
 40
1
 40
1
 10
397.057980
 20
51.297394
 30
0.0
 10
397.599432
 20
51.610002
 30
0.0
 10
398.266528
 20
51.610002
 30
0.0
 10
398.807980
 20
51.297394
 30
0.0
  0
SPLINE
  5
215
100
AcDbEntity
  8
Layer_1
 62
7
100
AcDbSpline
 70
8
 71
3
 72
8
 73
4
 74
0
 40
0
 40
0
 40
0
 40
0
 40
1
 40
1
 40
1
 40
1
 10
398.807980
 20
51.297394
 30
0.0
 10
399.349432
 20
50.984787
 30
0.0
 10
399.682980
 20
50.407065
 30
0.0
 10
399.682980
 20
49.781850
 30
0.0
  0
LWPOLYLINE
  5
216
100
AcDbEntity
  8
Layer_1
 62
7
100
AcDbPolyline
 90
1
 70
1
 10
534.334535
 20
259.300643
 30
0.0
  0
SPLINE
  5
217
100
AcDbEntity
  8
Layer_1
 62
7
100
AcDbSpline
 70
8
 71
3
 72
8
 73
4
 74
0
 40
0
 40
0
 40
0
 40
0
 40
1
 40
1
 40
1
 40
1
 10
405.190457
 20
55.629951
 30
0.0
 10
368.190750
 20
34.268209
 30
0.0
 10
322.605558
 20
34.268209
 30
0.0
 10
285.605851
 20
55.629951
 30
0.0
  0
SPLINE
  5
218
100
AcDbEntity
  8
Layer_1
 62
7
100
AcDbSpline
 70
8
 71
3
 72
8
 73
4
 74
0
 40
0
 40
0
 40
0
 40
0
 40
1
 40
1
 40
1
 40
1
 10
406.968958
 20
52.550287
 30
0.0
 10
368.869084
 20
30.553365
 30
0.0
 10
321.928440
 20
30.553365
 30
0.0
 10
283.828566
 20
52.550287
 30
0.0
  0
LWPOLYLINE
  5
219
100
AcDbEntity
  8
Layer_1
 62
7
100
AcDbPolyline
 90
16
 70
1
 10
238.404420
 20
295.600106
 30
0.0
 10
455.961810
 20
295.600106
 30
0.0
 10
455.961810
 20
-1.069054
 30
0.0
 10
238.404420
 20
-1.069054
 30
0.0
 10
238.404420
 20
295.600106
 30
0.0
 10
238.404420
 20
295.600106
 30
0.0
 10
238.404420
 20
295.600106
 30
0.0
 10
238.404420
 20
295.600106
 30
0.0
 10
238.404420
 20
295.600106
 30
0.0
 10
455.961810
 20
295.600106
 30
0.0
 10
455.961810
 20
-1.069054
 30
0.0
 10
238.404420
 20
-1.069054
 30
0.0
 10
238.404420
 20
295.600106
 30
0.0
 10
238.404420
 20
295.600106
 30
0.0
 10
238.404420
 20
295.600106
 30
0.0
 10
238.404420
 20
295.600106
 30
0.0
  0
SPLINE
  5
21a
100
AcDbEntity
  8
Layer_1
 62
7
100
AcDbSpline
 70
8
 71
3
 72
8
 73
4
 74
0
 40
0
 40
0
 40
0
 40
0
 40
1
 40
1
 40
1
 40
1
 10
764.665650
 20
161.150940
 30
0.0
 10
764.665650
 20
160.519844
 30
0.0
 10
764.328964
 20
159.936686
 30
0.0
 10
763.782418
 20
159.621138
 30
0.0
  0
SPLINE
  5
21b
100
AcDbEntity
  8
Layer_1
 62
7
100
AcDbSpline
 70
8
 71
3
 72
8
 73
4
 74
0
 40
0
 40
0
 40
0
 40
0
 40
1
 40
1
 40
1
 40
1
 10
763.782418
 20
159.621138
 30
0.0
 10
763.235873
 20
159.305590
 30
0.0
 10
762.562500
 20
159.305590
 30
0.0
 10
762.015955
 20
159.621138
 30
0.0
  0
SPLINE
  5
21c
100
AcDbEntity
  8
Layer_1
 62
7
100
AcDbSpline
 70
8
 71
3
 72
8
 73
4
 74
0
 40
0
 40
0
 40
0
 40
0
 40
1
 40
1
 40
1
 40
1
 10
762.015955
 20
159.621138
 30
0.0
 10
761.469409
 20
159.936686
 30
0.0
 10
761.132723
 20
160.519844
 30
0.0
 10
761.132723
 20
161.150940
 30
0.0
  0
SPLINE
  5
21d
100
AcDbEntity
  8
Layer_1
 62
7
100
AcDbSpline
 70
8
 71
3
 72
8
 73
4
 74
0
 40
0
 40
0
 40
0
 40
0
 40
1
 40
1
 40
1
 40
1
 10
761.132723
 20
161.150940
 30
0.0
 10
761.132723
 20
161.782037
 30
0.0
 10
761.469409
 20
162.365194
 30
0.0
 10
762.015955
 20
162.680743
 30
0.0
  0
SPLINE
  5
21e
100
AcDbEntity
  8
Layer_1
 62
7
100
AcDbSpline
 70
8
 71
3
 72
8
 73
4
 74
0
 40
0
 40
0
 40
0
 40
0
 40
1
 40
1
 40
1
 40
1
 10
762.015955
 20
162.680743
 30
0.0
 10
762.562500
 20
162.996291
 30
0.0
 10
763.235873
 20
162.996291
 30
0.0
 10
763.782418
 20
162.680743
 30
0.0
  0
SPLINE
  5
21f
100
AcDbEntity
  8
Layer_1
 62
7
100
AcDbSpline
 70
8
 71
3
 72
8
 73
4
 74
0
 40
0
 40
0
 40
0
 40
0
 40
1
 40
1
 40
1
 40
1
 10
763.782418
 20
162.680743
 30
0.0
 10
764.328964
 20
162.365194
 30
0.0
 10
764.665650
 20
161.782037
 30
0.0
 10
764.665650
 20
161.150940
 30
0.0
  0
LWPOLYLINE
  5
220
100
AcDbEntity
  8
Layer_1
 62
7
100
AcDbPolyline
 90
320
 70
1
 10
814.188533
 20
132.544065
 30
0.0
 10
815.516980
 20
132.598646
 30
0.0
 10
816.099539
 20
132.553994
 30
0.0
 10
818.025838
 20
132.075546
 30
0.0
 10
818.025838
 20
130.033216
 30
0.0
 10
816.099539
 20
129.554768
 30
0.0
 10
815.516980
 20
129.510117
 30
0.0
 10
814.188533
 20
129.564698
 30
0.0
 10
813.975200
 20
126.853920
 30
0.0
 10
815.295815
 20
126.700017
 30
0.0
 10
815.864219
 20
126.564783
 30
0.0
 10
817.691961
 20
125.790882
 30
0.0
 10
817.372476
 20
123.773699
 30
0.0
 10
815.395033
 20
123.602479
 30
0.0
 10
814.812659
 20
123.649514
 30
0.0
 10
813.509136
 20
123.911234
 30
0.0
 10
812.874348
 20
121.267205
 30
0.0
 10
814.154640
 20
120.908605
 30
0.0
 10
814.694893
 20
120.686120
 30
0.0
 10
816.379072
 20
119.635824
 30
0.0
 10
815.747961
 20
117.693455
 30
0.0
 10
813.768084
 20
117.833684
 30
0.0
 10
813.200235
 20
117.971241
 30
0.0
 10
811.953677
 20
118.433661
 30
0.0
 10
810.913097
 20
115.921484
 30
0.0
 10
812.121529
 20
115.367018
 30
0.0
 10
812.620321
 20
115.062758
 30
0.0
 10
814.119451
 20
113.761931
 30
0.0
 10
813.192271
 20
111.942201
 30
0.0
 10
811.258696
 20
112.390424
 30
0.0
 10
810.719370
 20
112.615119
 30
0.0
 10
809.560495
 20
113.266851
 30
0.0
 10
808.139735
 20
110.948384
 30
0.0
 10
809.246540
 20
110.211707
 30
0.0
 10
809.691596
 20
109.833163
 30
0.0
 10
810.968792
 20
108.313833
 30
0.0
 10
809.768351
 20
106.661555
 30
0.0
 10
807.928703
 20
107.406735
 30
0.0
 10
807.431154
 20
107.713035
 30
0.0
 10
806.388511
 20
108.538027
 30
0.0
 10
804.622549
 20
106.470361
 30
0.0
 10
805.600502
 20
105.569609
 30
0.0
 10
805.980867
 20
105.126103
 30
0.0
 10
807.004646
 20
103.425682
 30
0.0
 10
805.560497
 20
101.981538
 30
0.0
 10
803.860073
 20
103.005328
 30
0.0
 10
803.416579
 20
103.385690
 30
0.0
 10
802.515831
 20
104.363632
 30
0.0
 10
800.448165
 20
102.597679
 30
0.0
 10
801.273163
 20
101.555033
 30
0.0
 10
801.579444
 20
101.057484
 30
0.0
 10
802.324643
 20
99.217844
 30
0.0
 10
800.672347
 20
98.017392
 30
0.0
 10
799.153030
 20
99.294581
 30
0.0
 10
798.774490
 20
99.739642
 30
0.0
 10
798.037811
 20
100.846452
 30
0.0
 10
795.719347
 20
99.425695
 30
0.0
 10
796.371068
 20
98.266828
 30
0.0
 10
796.595753
 20
97.727488
 30
0.0
 10
797.043983
 20
95.793926
 30
0.0
 10
795.224258
 20
94.866729
 30
0.0
 10
793.923434
 20
96.365868
 30
0.0
 10
793.619164
 20
96.864663
 30
0.0
 10
793.064703
 20
98.073090
 30
0.0
 10
790.552537
 20
97.032512
 30
0.0
 10
791.014949
 20
95.785960
 30
0.0
 10
791.152506
 20
95.218111
 30
0.0
 10
791.292735
 20
93.238237
 30
0.0
 10
789.350376
 20
92.607123
 30
0.0
 10
788.300060
 20
94.291300
 30
0.0
 10
788.077571
 20
94.831552
 30
0.0
 10
787.718982
 20
96.111839
 30
0.0
 10
785.074948
 20
95.477064
 30
0.0
 10
785.336673
 20
94.173520
 30
0.0
 10
785.383716
 20
93.591143
 30
0.0
 10
785.212478
 20
91.613708
 30
0.0
 10
783.195295
 20
91.294216
 30
0.0
 10
782.421415
 20
93.121960
 30
0.0
 10
782.286160
 20
93.690367
 30
0.0
 10
782.132278
 20
95.010987
 30
0.0
 10
779.421490
 20
94.797643
 30
0.0
 10
779.476073
 20
93.469207
 30
0.0
 10
779.431411
 20
92.886642
 30
0.0
 10
778.952965
 20
90.960338
 30
0.0
 10
776.910647
 20
90.960338
 30
0.0
 10
776.432201
 20
92.886642
 30
0.0
 10
776.387539
 20
93.469207
 30
0.0
 10
776.442123
 20
94.797643
 30
0.0
 10
773.731334
 20
95.010987
 30
0.0
 10
773.577452
 20
93.690367
 30
0.0
 10
773.442197
 20
93.121960
 30
0.0
 10
772.668318
 20
91.294216
 30
0.0
 10
770.651134
 20
91.613708
 30
0.0
 10
770.479896
 20
93.591143
 30
0.0
 10
770.526939
 20
94.173520
 30
0.0
 10
770.788665
 20
95.477064
 30
0.0
 10
768.144630
 20
96.111839
 30
0.0
 10
767.786041
 20
94.831552
 30
0.0
 10
767.563553
 20
94.291300
 30
0.0
 10
766.513236
 20
92.607123
 30
0.0
 10
764.570877
 20
93.238237
 30
0.0
 10
764.711106
 20
95.218111
 30
0.0
 10
764.848663
 20
95.785960
 30
0.0
 10
765.311075
 20
97.032512
 30
0.0
 10
762.798909
 20
98.073090
 30
0.0
 10
762.244449
 20
96.864663
 30
0.0
 10
761.940178
 20
96.365868
 30
0.0
 10
760.639354
 20
94.866729
 30
0.0
 10
758.819629
 20
95.793926
 30
0.0
 10
759.267860
 20
97.727488
 30
0.0
 10
759.492544
 20
98.266828
 30
0.0
 10
760.144265
 20
99.425695
 30
0.0
 10
757.825801
 20
100.846452
 30
0.0
 10
757.089122
 20
99.739642
 30
0.0
 10
756.710582
 20
99.294581
 30
0.0
 10
755.191265
 20
98.017392
 30
0.0
 10
753.538969
 20
99.217844
 30
0.0
 10
754.284168
 20
101.057484
 30
0.0
 10
754.590450
 20
101.555033
 30
0.0
 10
755.415447
 20
102.597679
 30
0.0
 10
753.347781
 20
104.363632
 30
0.0
 10
752.447034
 20
103.385690
 30
0.0
 10
752.003539
 20
103.005328
 30
0.0
 10
750.303115
 20
101.981538
 30
0.0
 10
748.858966
 20
103.425682
 30
0.0
 10
749.882745
 20
105.126103
 30
0.0
 10
750.263110
 20
105.569609
 30
0.0
 10
751.241063
 20
106.470361
 30
0.0
 10
749.475101
 20
108.538027
 30
0.0
 10
748.432458
 20
107.713035
 30
0.0
 10
747.934909
 20
107.406735
 30
0.0
 10
746.095261
 20
106.661555
 30
0.0
 10
744.894820
 20
108.313833
 30
0.0
 10
746.172016
 20
109.833163
 30
0.0
 10
746.617072
 20
110.211707
 30
0.0
 10
747.723877
 20
110.948384
 30
0.0
 10
746.303118
 20
113.266851
 30
0.0
 10
745.144243
 20
112.615119
 30
0.0
 10
744.604916
 20
112.390424
 30
0.0
 10
742.671341
 20
111.942201
 30
0.0
 10
741.744161
 20
113.761931
 30
0.0
 10
743.243291
 20
115.062758
 30
0.0
 10
743.742083
 20
115.367018
 30
0.0
 10
744.950515
 20
115.921484
 30
0.0
 10
743.909935
 20
118.433661
 30
0.0
 10
742.663377
 20
117.971241
 30
0.0
 10
742.095528
 20
117.833684
 30
0.0
 10
740.115651
 20
117.693455
 30
0.0
 10
739.484540
 20
119.635824
 30
0.0
 10
741.168719
 20
120.686120
 30
0.0
 10
741.708972
 20
120.908605
 30
0.0
 10
742.989264
 20
121.267205
 30
0.0
 10
742.354476
 20
123.911234
 30
0.0
 10
741.050953
 20
123.649514
 30
0.0
 10
740.468579
 20
123.602479
 30
0.0
 10
738.491136
 20
123.773699
 30
0.0
 10
738.171651
 20
125.790882
 30
0.0
 10
739.999393
 20
126.564783
 30
0.0
 10
740.567798
 20
126.700017
 30
0.0
 10
741.888412
 20
126.853920
 30
0.0
 10
741.675079
 20
129.564698
 30
0.0
 10
740.346632
 20
129.510117
 30
0.0
 10
739.764073
 20
129.554768
 30
0.0
 10
737.837774
 20
130.033216
 30
0.0
 10
737.837774
 20
132.075546
 30
0.0
 10
739.764073
 20
132.553994
 30
0.0
 10
740.346632
 20
132.598646
 30
0.0
 10
741.675079
 20
132.544065
 30
0.0
 10
741.888412
 20
135.254843
 30
0.0
 10
740.567798
 20
135.408745
 30
0.0
 10
739.999393
 20
135.543979
 30
0.0
 10
738.171651
 20
136.317880
 30
0.0
 10
738.491136
 20
138.335064
 30
0.0
 10
740.468579
 20
138.506283
 30
0.0
 10
741.050953
 20
138.459248
 30
0.0
 10
742.354476
 20
138.197528
 30
0.0
 10
742.989264
 20
140.841557
 30
0.0
 10
741.708972
 20
141.200157
 30
0.0
 10
741.168719
 20
141.422643
 30
0.0
 10
739.484540
 20
142.472938
 30
0.0
 10
740.115651
 20
144.415308
 30
0.0
 10
742.095528
 20
144.275078
 30
0.0
 10
742.663377
 20
144.137522
 30
0.0
 10
743.909935
 20
143.675101
 30
0.0
 10
744.950515
 20
146.187278
 30
0.0
 10
743.742083
 20
146.741744
 30
0.0
 10
743.243291
 20
147.046004
 30
0.0
 10
741.744161
 20
148.346831
 30
0.0
 10
742.671341
 20
150.166561
 30
0.0
 10
744.604916
 20
149.718338
 30
0.0
 10
745.144243
 20
149.493643
 30
0.0
 10
746.303118
 20
148.841911
 30
0.0
 10
747.723877
 20
151.160378
 30
0.0
 10
746.617072
 20
151.897055
 30
0.0
 10
746.172016
 20
152.275600
 30
0.0
 10
744.894820
 20
153.794930
 30
0.0
 10
746.095261
 20
155.447208
 30
0.0
 10
747.934909
 20
154.702027
 30
0.0
 10
748.432458
 20
154.395727
 30
0.0
 10
749.475101
 20
153.570735
 30
0.0
 10
751.241063
 20
155.638401
 30
0.0
 10
750.263110
 20
156.539154
 30
0.0
 10
749.882745
 20
156.982659
 30
0.0
 10
748.858966
 20
158.683080
 30
0.0
 10
750.303115
 20
160.127224
 30
0.0
 10
752.003539
 20
159.103434
 30
0.0
 10
752.447034
 20
158.723072
 30
0.0
 10
753.347781
 20
157.745130
 30
0.0
 10
755.415447
 20
159.511083
 30
0.0
 10
754.590450
 20
160.553729
 30
0.0
 10
754.284168
 20
161.051278
 30
0.0
 10
753.538969
 20
162.890918
 30
0.0
 10
755.191265
 20
164.091370
 30
0.0
 10
756.710582
 20
162.814181
 30
0.0
 10
757.089122
 20
162.369120
 30
0.0
 10
757.825801
 20
161.262310
 30
0.0
 10
760.144265
 20
162.683067
 30
0.0
 10
759.492544
 20
163.841934
 30
0.0
 10
759.267860
 20
164.381274
 30
0.0
 10
758.819629
 20
166.314836
 30
0.0
 10
760.639354
 20
167.242034
 30
0.0
 10
761.940178
 20
165.742894
 30
0.0
 10
762.244449
 20
165.244099
 30
0.0
 10
762.798909
 20
164.035673
 30
0.0
 10
765.311075
 20
165.076250
 30
0.0
 10
764.848663
 20
166.322802
 30
0.0
 10
764.711106
 20
166.890651
 30
0.0
 10
764.570877
 20
168.870526
 30
0.0
 10
766.513236
 20
169.501639
 30
0.0
 10
767.563553
 20
167.817463
 30
0.0
 10
767.786041
 20
167.277210
 30
0.0
 10
768.144630
 20
165.996923
 30
0.0
 10
770.788665
 20
166.631698
 30
0.0
 10
770.526939
 20
167.935242
 30
0.0
 10
770.479896
 20
168.517619
 30
0.0
 10
770.651134
 20
170.495054
 30
0.0
 10
772.668318
 20
170.814546
 30
0.0
 10
773.442197
 20
168.986802
 30
0.0
 10
773.577452
 20
168.418395
 30
0.0
 10
773.731334
 20
167.097775
 30
0.0
 10
776.442123
 20
167.311119
 30
0.0
 10
776.387539
 20
168.639555
 30
0.0
 10
776.432201
 20
169.222120
 30
0.0
 10
776.910647
 20
171.148424
 30
0.0
 10
778.952965
 20
171.148424
 30
0.0
 10
779.431411
 20
169.222120
 30
0.0
 10
779.476073
 20
168.639555
 30
0.0
 10
779.421490
 20
167.311119
 30
0.0
 10
782.132278
 20
167.097775
 30
0.0
 10
782.286160
 20
168.418395
 30
0.0
 10
782.421415
 20
168.986802
 30
0.0
 10
783.195295
 20
170.814546
 30
0.0
 10
785.212478
 20
170.495054
 30
0.0
 10
785.383716
 20
168.517619
 30
0.0
 10
785.336673
 20
167.935242
 30
0.0
 10
785.074948
 20
166.631698
 30
0.0
 10
787.718982
 20
165.996923
 30
0.0
 10
788.077571
 20
167.277210
 30
0.0
 10
788.300060
 20
167.817463
 30
0.0
 10
789.350376
 20
169.501639
 30
0.0
 10
791.292735
 20
168.870526
 30
0.0
 10
791.152506
 20
166.890651
 30
0.0
 10
791.014949
 20
166.322802
 30
0.0
 10
790.552537
 20
165.076250
 30
0.0
 10
793.064703
 20
164.035673
 30
0.0
 10
793.619164
 20
165.244099
 30
0.0
 10
793.923434
 20
165.742894
 30
0.0
 10
795.224258
 20
167.242034
 30
0.0
 10
797.043983
 20
166.314836
 30
0.0
 10
796.595753
 20
164.381274
 30
0.0
 10
796.371068
 20
163.841934
 30
0.0
 10
795.719347
 20
162.683067
 30
0.0
 10
798.037811
 20
161.262310
 30
0.0
 10
798.774490
 20
162.369120
 30
0.0
 10
799.153030
 20
162.814181
 30
0.0
 10
800.672347
 20
164.091370
 30
0.0
 10
802.324643
 20
162.890918
 30
0.0
 10
801.579444
 20
161.051278
 30
0.0
 10
801.273163
 20
160.553729
 30
0.0
 10
800.448165
 20
159.511083
 30
0.0
 10
802.515831
 20
157.745130
 30
0.0
 10
803.416579
 20
158.723072
 30
0.0
 10
803.860073
 20
159.103434
 30
0.0
 10
805.560497
 20
160.127224
 30
0.0
 10
807.004646
 20
158.683080
 30
0.0
 10
805.980867
 20
156.982659
 30
0.0
 10
805.600502
 20
156.539154
 30
0.0
 10
804.622549
 20
155.638401
 30
0.0
 10
806.388511
 20
153.570735
 30
0.0
 10
807.431154
 20
154.395727
 30
0.0
 10
807.928703
 20
154.702027
 30
0.0
 10
809.768351
 20
155.447208
 30
0.0
 10
810.968792
 20
153.794930
 30
0.0
 10
809.691596
 20
152.275600
 30
0.0
 10
809.246540
 20
151.897055
 30
0.0
 10
808.139735
 20
151.160378
 30
0.0
 10
809.560495
 20
148.841911
 30
0.0
 10
810.719370
 20
149.493643
 30
0.0
 10
811.258696
 20
149.718338
 30
0.0
 10
813.192271
 20
150.166561
 30
0.0
 10
814.119451
 20
148.346831
 30
0.0
 10
812.620321
 20
147.046004
 30
0.0
 10
812.121529
 20
146.741744
 30
0.0
 10
810.913097
 20
146.187278
 30
0.0
 10
811.953677
 20
143.675101
 30
0.0
 10
813.200235
 20
144.137522
 30
0.0
 10
813.768084
 20
144.275078
 30
0.0
 10
815.747961
 20
144.415308
 30
0.0
 10
816.379072
 20
142.472938
 30
0.0
 10
814.694893
 20
141.422643
 30
0.0
 10
814.154640
 20
141.200157
 30
0.0
 10
812.874348
 20
140.841557
 30
0.0
 10
813.509136
 20
138.197528
 30
0.0
 10
814.812659
 20
138.459248
 30
0.0
 10
815.395033
 20
138.506283
 30
0.0
 10
817.372476
 20
138.335064
 30
0.0
 10
817.691961
 20
136.317880
 30
0.0
 10
815.864219
 20
135.543979
 30
0.0
 10
815.295815
 20
135.408745
 30
0.0
 10
813.975200
 20
135.254843
 30
0.0
  0
SPLINE
  5
221
100
AcDbEntity
  8
Layer_1
 62
7
100
AcDbSpline
 70
8
 71
3
 72
8
 73
4
 74
0
 40
0
 40
0
 40
0
 40
0
 40
1
 40
1
 40
1
 40
1
 10
779.681780
 20
131.054381
 30
0.0
 10
779.681780
 20
130.429166
 30
0.0
 10
779.348232
 20
129.851444
 30
0.0
 10
778.806780
 20
129.538837
 30
0.0
  0
SPLINE
  5
222
100
AcDbEntity
  8
Layer_1
 62
7
100
AcDbSpline
 70
8
 71
3
 72
8
 73
4
 74
0
 40
0
 40
0
 40
0
 40
0
 40
1
 40
1
 40
1
 40
1
 10
778.806780
 20
129.538837
 30
0.0
 10
778.265328
 20
129.226229
 30
0.0
 10
777.598231
 20
129.226229
 30
0.0
 10
777.056780
 20
129.538837
 30
0.0
  0
SPLINE
  5
223
100
AcDbEntity
  8
Layer_1
 62
7
100
AcDbSpline
 70
8
 71
3
 72
8
 73
4
 74
0
 40
0
 40
0
 40
0
 40
0
 40
1
 40
1
 40
1
 40
1
 10
777.056780
 20
129.538837
 30
0.0
 10
776.515328
 20
129.851444
 30
0.0
 10
776.181780
 20
130.429166
 30
0.0
 10
776.181780
 20
131.054381
 30
0.0
  0
SPLINE
  5
224
100
AcDbEntity
  8
Layer_1
 62
7
100
AcDbSpline
 70
8
 71
3
 72
8
 73
4
 74
0
 40
0
 40
0
 40
0
 40
0
 40
1
 40
1
 40
1
 40
1
 10
776.181780
 20
131.054381
 30
0.0
 10
776.181780
 20
131.679596
 30
0.0
 10
776.515328
 20
132.257318
 30
0.0
 10
777.056780
 20
132.569926
 30
0.0
  0
SPLINE
  5
225
100
AcDbEntity
  8
Layer_1
 62
7
100
AcDbSpline
 70
8
 71
3
 72
8
 73
4
 74
0
 40
0
 40
0
 40
0
 40
0
 40
1
 40
1
 40
1
 40
1
 10
777.056780
 20
132.569926
 30
0.0
 10
777.598231
 20
132.882533
 30
0.0
 10
778.265328
 20
132.882533
 30
0.0
 10
778.806780
 20
132.569926
 30
0.0
  0
SPLINE
  5
226
100
AcDbEntity
  8
Layer_1
 62
7
100
AcDbSpline
 70
8
 71
3
 72
8
 73
4
 74
0
 40
0
 40
0
 40
0
 40
0
 40
1
 40
1
 40
1
 40
1
 10
778.806780
 20
132.569926
 30
0.0
 10
779.348232
 20
132.257318
 30
0.0
 10
779.681780
 20
131.679596
 30
0.0
 10
779.681780
 20
131.054381
 30
0.0
  0
LWPOLYLINE
  5
227
100
AcDbEntity
  8
Layer_1
 62
7
100
AcDbPolyline
 90
1
 70
1
 10
764.665650
 20
161.150940
 30
0.0
  0
SPLINE
  5
228
100
AcDbEntity
  8
Layer_1
 62
7
100
AcDbSpline
 70
8
 71
3
 72
8
 73
4
 74
0
 40
0
 40
0
 40
0
 40
0
 40
1
 40
1
 40
1
 40
1
 10
779.743048
 20
131.055461
 30
0.0
 10
779.743048
 20
130.430245
 30
0.0
 10
779.409488
 20
129.852525
 30
0.0
 10
778.868045
 20
129.539917
 30
0.0
  0
SPLINE
  5
229
100
AcDbEntity
  8
Layer_1
 62
7
100
AcDbSpline
 70
8
 71
3
 72
8
 73
4
 74
0
 40
0
 40
0
 40
0
 40
0
 40
1
 40
1
 40
1
 40
1
 10
778.868045
 20
129.539917
 30
0.0
 10
778.326601
 20
129.227309
 30
0.0
 10
777.659507
 20
129.227309
 30
0.0
 10
777.118038
 20
129.539917
 30
0.0
  0
SPLINE
  5
22a
100
AcDbEntity
  8
Layer_1
 62
7
100
AcDbSpline
 70
8
 71
3
 72
8
 73
4
 74
0
 40
0
 40
0
 40
0
 40
0
 40
1
 40
1
 40
1
 40
1
 10
777.118038
 20
129.539917
 30
0.0
 10
776.576594
 20
129.852525
 30
0.0
 10
776.243061
 20
130.430245
 30
0.0
 10
776.243061
 20
131.055461
 30
0.0
  0
SPLINE
  5
22b
100
AcDbEntity
  8
Layer_1
 62
7
100
AcDbSpline
 70
8
 71
3
 72
8
 73
4
 74
0
 40
0
 40
0
 40
0
 40
0
 40
1
 40
1
 40
1
 40
1
 10
776.243061
 20
131.055461
 30
0.0
 10
776.243061
 20
131.680676
 30
0.0
 10
776.576594
 20
132.258397
 30
0.0
 10
777.118038
 20
132.571005
 30
0.0
  0
SPLINE
  5
22c
100
AcDbEntity
  8
Layer_1
 62
7
100
AcDbSpline
 70
8
 71
3
 72
8
 73
4
 74
0
 40
0
 40
0
 40
0
 40
0
 40
1
 40
1
 40
1
 40
1
 10
777.118038
 20
132.571005
 30
0.0
 10
777.659507
 20
132.883612
 30
0.0
 10
778.326601
 20
132.883612
 30
0.0
 10
778.868045
 20
132.571005
 30
0.0
  0
SPLINE
  5
22d
100
AcDbEntity
  8
Layer_1
 62
7
100
AcDbSpline
 70
8
 71
3
 72
8
 73
4
 74
0
 40
0
 40
0
 40
0
 40
0
 40
1
 40
1
 40
1
 40
1
 10
778.868045
 20
132.571005
 30
0.0
 10
779.409488
 20
132.258397
 30
0.0
 10
779.743048
 20
131.680676
 30
0.0
 10
779.743048
 20
131.055461
 30
0.0
  0
SPLINE
  5
22e
100
AcDbEntity
  8
Layer_1
 62
7
100
AcDbSpline
 70
8
 71
3
 72
8
 73
4
 74
0
 40
0
 40
0
 40
0
 40
0
 40
1
 40
1
 40
1
 40
1
 10
781.711919
 20
131.055476
 30
0.0
 10
781.711919
 20
129.726850
 30
0.0
 10
781.003100
 20
128.499152
 30
0.0
 10
779.852480
 20
127.834838
 30
0.0
  0
SPLINE
  5
22f
100
AcDbEntity
  8
Layer_1
 62
7
100
AcDbSpline
 70
8
 71
3
 72
8
 73
4
 74
0
 40
0
 40
0
 40
0
 40
0
 40
1
 40
1
 40
1
 40
1
 10
779.852480
 20
127.834838
 30
0.0
 10
778.701860
 20
127.170525
 30
0.0
 10
777.284249
 20
127.170525
 30
0.0
 10
776.133602
 20
127.834838
 30
0.0
  0
SPLINE
  5
230
100
AcDbEntity
  8
Layer_1
 62
7
100
AcDbSpline
 70
8
 71
3
 72
8
 73
4
 74
0
 40
0
 40
0
 40
0
 40
0
 40
1
 40
1
 40
1
 40
1
 10
776.133602
 20
127.834838
 30
0.0
 10
774.982982
 20
128.499152
 30
0.0
 10
774.274190
 20
129.726850
 30
0.0
 10
774.274190
 20
131.055476
 30
0.0
  0
SPLINE
  5
231
100
AcDbEntity
  8
Layer_1
 62
7
100
AcDbSpline
 70
8
 71
3
 72
8
 73
4
 74
0
 40
0
 40
0
 40
0
 40
0
 40
1
 40
1
 40
1
 40
1
 10
774.274190
 20
131.055476
 30
0.0
 10
774.274190
 20
132.384100
 30
0.0
 10
774.982982
 20
133.611801
 30
0.0
 10
776.133602
 20
134.276112
 30
0.0
  0
SPLINE
  5
232
100
AcDbEntity
  8
Layer_1
 62
7
100
AcDbSpline
 70
8
 71
3
 72
8
 73
4
 74
0
 40
0
 40
0
 40
0
 40
0
 40
1
 40
1
 40
1
 40
1
 10
776.133602
 20
134.276112
 30
0.0
 10
777.284249
 20
134.940425
 30
0.0
 10
778.701860
 20
134.940425
 30
0.0
 10
779.852480
 20
134.276112
 30
0.0
  0
SPLINE
  5
233
100
AcDbEntity
  8
Layer_1
 62
7
100
AcDbSpline
 70
8
 71
3
 72
8
 73
4
 74
0
 40
0
 40
0
 40
0
 40
0
 40
1
 40
1
 40
1
 40
1
 10
779.852480
 20
134.276112
 30
0.0
 10
781.003100
 20
133.611801
 30
0.0
 10
781.711919
 20
132.384100
 30
0.0
 10
781.711919
 20
131.055476
 30
0.0
  0
SPLINE
  5
234
100
AcDbEntity
  8
Layer_1
 62
7
100
AcDbSpline
 70
8
 71
3
 72
8
 73
4
 74
0
 40
0
 40
0
 40
0
 40
0
 40
1
 40
1
 40
1
 40
1
 10
803.521215
 20
154.714743
 30
0.0
 10
803.521215
 20
154.083646
 30
0.0
 10
803.184529
 20
153.500488
 30
0.0
 10
802.637984
 20
153.184940
 30
0.0
  0
SPLINE
  5
235
100
AcDbEntity
  8
Layer_1
 62
7
100
AcDbSpline
 70
8
 71
3
 72
8
 73
4
 74
0
 40
0
 40
0
 40
0
 40
0
 40
1
 40
1
 40
1
 40
1
 10
802.637984
 20
153.184940
 30
0.0
 10
802.091438
 20
152.869392
 30
0.0
 10
801.418066
 20
152.869392
 30
0.0
 10
800.871520
 20
153.184940
 30
0.0
  0
SPLINE
  5
236
100
AcDbEntity
  8
Layer_1
 62
7
100
AcDbSpline
 70
8
 71
3
 72
8
 73
4
 74
0
 40
0
 40
0
 40
0
 40
0
 40
1
 40
1
 40
1
 40
1
 10
800.871520
 20
153.184940
 30
0.0
 10
800.324974
 20
153.500488
 30
0.0
 10
799.988288
 20
154.083646
 30
0.0
 10
799.988288
 20
154.714743
 30
0.0
  0
SPLINE
  5
237
100
AcDbEntity
  8
Layer_1
 62
7
100
AcDbSpline
 70
8
 71
3
 72
8
 73
4
 74
0
 40
0
 40
0
 40
0
 40
0
 40
1
 40
1
 40
1
 40
1
 10
799.988288
 20
154.714743
 30
0.0
 10
799.988288
 20
155.345839
 30
0.0
 10
800.324974
 20
155.928997
 30
0.0
 10
800.871520
 20
156.244545
 30
0.0
  0
SPLINE
  5
238
100
AcDbEntity
  8
Layer_1
 62
7
100
AcDbSpline
 70
8
 71
3
 72
8
 73
4
 74
0
 40
0
 40
0
 40
0
 40
0
 40
1
 40
1
 40
1
 40
1
 10
800.871520
 20
156.244545
 30
0.0
 10
801.418066
 20
156.560093
 30
0.0
 10
802.091438
 20
156.560093
 30
0.0
 10
802.637984
 20
156.244545
 30
0.0
  0
SPLINE
  5
239
100
AcDbEntity
  8
Layer_1
 62
7
100
AcDbSpline
 70
8
 71
3
 72
8
 73
4
 74
0
 40
0
 40
0
 40
0
 40
0
 40
1
 40
1
 40
1
 40
1
 10
802.637984
 20
156.244545
 30
0.0
 10
803.184529
 20
155.928997
 30
0.0
 10
803.521215
 20
155.345839
 30
0.0
 10
803.521215
 20
154.714743
 30
0.0
  0
LWPOLYLINE
  5
23a
100
AcDbEntity
  8
Layer_1
 62
7
100
AcDbPolyline
 90
1
 70
1
 10
779.681780
 20
131.054381
 30
0.0
  0
SPLINE
  5
23b
100
AcDbEntity
  8
Layer_1
 62
7
100
AcDbSpline
 70
8
 71
3
 72
8
 73
4
 74
0
 40
0
 40
0
 40
0
 40
0
 40
1
 40
1
 40
1
 40
1
 10
785.046944
 20
164.369038
 30
0.0
 10
785.046944
 20
163.737942
 30
0.0
 10
784.710258
 20
163.154784
 30
0.0
 10
784.163712
 20
162.839236
 30
0.0
  0
SPLINE
  5
23c
100
AcDbEntity
  8
Layer_1
 62
7
100
AcDbSpline
 70
8
 71
3
 72
8
 73
4
 74
0
 40
0
 40
0
 40
0
 40
0
 40
1
 40
1
 40
1
 40
1
 10
784.163712
 20
162.839236
 30
0.0
 10
783.617166
 20
162.523688
 30
0.0
 10
782.943794
 20
162.523688
 30
0.0
 10
782.397248
 20
162.839236
 30
0.0
  0
SPLINE
  5
23d
100
AcDbEntity
  8
Layer_1
 62
7
100
AcDbSpline
 70
8
 71
3
 72
8
 73
4
 74
0
 40
0
 40
0
 40
0
 40
0
 40
1
 40
1
 40
1
 40
1
 10
782.397248
 20
162.839236
 30
0.0
 10
781.850702
 20
163.154784
 30
0.0
 10
781.514016
 20
163.737942
 30
0.0
 10
781.514016
 20
164.369038
 30
0.0
  0
SPLINE
  5
23e
100
AcDbEntity
  8
Layer_1
 62
7
100
AcDbSpline
 70
8
 71
3
 72
8
 73
4
 74
0
 40
0
 40
0
 40
0
 40
0
 40
1
 40
1
 40
1
 40
1
 10
781.514016
 20
164.369038
 30
0.0
 10
781.514016
 20
165.000135
 30
0.0
 10
781.850702
 20
165.583292
 30
0.0
 10
782.397248
 20
165.898841
 30
0.0
  0
SPLINE
  5
23f
100
AcDbEntity
  8
Layer_1
 62
7
100
AcDbSpline
 70
8
 71
3
 72
8
 73
4
 74
0
 40
0
 40
0
 40
0
 40
0
 40
1
 40
1
 40
1
 40
1
 10
782.397248
 20
165.898841
 30
0.0
 10
782.943794
 20
166.214389
 30
0.0
 10
783.617166
 20
166.214389
 30
0.0
 10
784.163712
 20
165.898841
 30
0.0
  0
SPLINE
  5
240
100
AcDbEntity
  8
Layer_1
 62
7
100
AcDbSpline
 70
8
 71
3
 72
8
 73
4
 74
0
 40
0
 40
0
 40
0
 40
0
 40
1
 40
1
 40
1
 40
1
 10
784.163712
 20
165.898841
 30
0.0
 10
784.710258
 20
165.583292
 30
0.0
 10
785.046944
 20
165.000135
 30
0.0
 10
785.046944
 20
164.369038
 30
0.0
  0
LWPOLYLINE
  5
241
100
AcDbEntity
  8
Layer_1
 62
7
100
AcDbPolyline
 90
1
 70
1
 10
803.521215
 20
154.714743
 30
0.0
  0
SPLINE
  5
242
100
AcDbEntity
  8
Layer_1
 62
7
100
AcDbSpline
 70
8
 71
3
 72
8
 73
4
 74
0
 40
0
 40
0
 40
0
 40
0
 40
1
 40
1
 40
1
 40
1
 10
749.171100
 20
146.490712
 30
0.0
 10
749.171100
 20
145.859616
 30
0.0
 10
748.834414
 20
145.276458
 30
0.0
 10
748.287868
 20
144.960910
 30
0.0
  0
SPLINE
  5
243
100
AcDbEntity
  8
Layer_1
 62
7
100
AcDbSpline
 70
8
 71
3
 72
8
 73
4
 74
0
 40
0
 40
0
 40
0
 40
0
 40
1
 40
1
 40
1
 40
1
 10
748.287868
 20
144.960910
 30
0.0
 10
747.741322
 20
144.645361
 30
0.0
 10
747.067950
 20
144.645361
 30
0.0
 10
746.521405
 20
144.960910
 30
0.0
  0
SPLINE
  5
244
100
AcDbEntity
  8
Layer_1
 62
7
100
AcDbSpline
 70
8
 71
3
 72
8
 73
4
 74
0
 40
0
 40
0
 40
0
 40
0
 40
1
 40
1
 40
1
 40
1
 10
746.521405
 20
144.960910
 30
0.0
 10
745.974859
 20
145.276458
 30
0.0
 10
745.638173
 20
145.859616
 30
0.0
 10
745.638173
 20
146.490712
 30
0.0
  0
SPLINE
  5
245
100
AcDbEntity
  8
Layer_1
 62
7
100
AcDbSpline
 70
8
 71
3
 72
8
 73
4
 74
0
 40
0
 40
0
 40
0
 40
0
 40
1
 40
1
 40
1
 40
1
 10
745.638173
 20
146.490712
 30
0.0
 10
745.638173
 20
147.121809
 30
0.0
 10
745.974859
 20
147.704966
 30
0.0
 10
746.521405
 20
148.020515
 30
0.0
  0
SPLINE
  5
246
100
AcDbEntity
  8
Layer_1
 62
7
100
AcDbSpline
 70
8
 71
3
 72
8
 73
4
 74
0
 40
0
 40
0
 40
0
 40
0
 40
1
 40
1
 40
1
 40
1
 10
746.521405
 20
148.020515
 30
0.0
 10
747.067950
 20
148.336063
 30
0.0
 10
747.741322
 20
148.336063
 30
0.0
 10
748.287868
 20
148.020515
 30
0.0
  0
SPLINE
  5
247
100
AcDbEntity
  8
Layer_1
 62
7
100
AcDbSpline
 70
8
 71
3
 72
8
 73
4
 74
0
 40
0
 40
0
 40
0
 40
0
 40
1
 40
1
 40
1
 40
1
 10
748.287868
 20
148.020515
 30
0.0
 10
748.834414
 20
147.704966
 30
0.0
 10
749.171100
 20
147.121809
 30
0.0
 10
749.171100
 20
146.490712
 30
0.0
  0
LWPOLYLINE
  5
248
100
AcDbEntity
  8
Layer_1
 62
7
100
AcDbPolyline
 90
1
 70
1
 10
785.046944
 20
164.369038
 30
0.0
  0
SPLINE
  5
249
100
AcDbEntity
  8
Layer_1
 62
7
100
AcDbSpline
 70
8
 71
3
 72
8
 73
4
 74
0
 40
0
 40
0
 40
0
 40
0
 40
1
 40
1
 40
1
 40
1
 10
795.177996
 20
100.483816
 30
0.0
 10
795.177996
 20
99.852719
 30
0.0
 10
794.841310
 20
99.269561
 30
0.0
 10
794.294764
 20
98.954013
 30
0.0
  0
SPLINE
  5
24a
100
AcDbEntity
  8
Layer_1
 62
7
100
AcDbSpline
 70
8
 71
3
 72
8
 73
4
 74
0
 40
0
 40
0
 40
0
 40
0
 40
1
 40
1
 40
1
 40
1
 10
794.294764
 20
98.954013
 30
0.0
 10
793.748218
 20
98.638465
 30
0.0
 10
793.074846
 20
98.638465
 30
0.0
 10
792.528300
 20
98.954013
 30
0.0
  0
SPLINE
  5
24b
100
AcDbEntity
  8
Layer_1
 62
7
100
AcDbSpline
 70
8
 71
3
 72
8
 73
4
 74
0
 40
0
 40
0
 40
0
 40
0
 40
1
 40
1
 40
1
 40
1
 10
792.528300
 20
98.954013
 30
0.0
 10
791.981755
 20
99.269561
 30
0.0
 10
791.645069
 20
99.852719
 30
0.0
 10
791.645069
 20
100.483816
 30
0.0
  0
SPLINE
  5
24c
100
AcDbEntity
  8
Layer_1
 62
7
100
AcDbSpline
 70
8
 71
3
 72
8
 73
4
 74
0
 40
0
 40
0
 40
0
 40
0
 40
1
 40
1
 40
1
 40
1
 10
791.645069
 20
100.483816
 30
0.0
 10
791.645069
 20
101.114912
 30
0.0
 10
791.981755
 20
101.698070
 30
0.0
 10
792.528300
 20
102.013618
 30
0.0
  0
SPLINE
  5
24d
100
AcDbEntity
  8
Layer_1
 62
7
100
AcDbSpline
 70
8
 71
3
 72
8
 73
4
 74
0
 40
0
 40
0
 40
0
 40
0
 40
1
 40
1
 40
1
 40
1
 10
792.528300
 20
102.013618
 30
0.0
 10
793.074846
 20
102.329166
 30
0.0
 10
793.748218
 20
102.329166
 30
0.0
 10
794.294764
 20
102.013618
 30
0.0
  0
SPLINE
  5
24e
100
AcDbEntity
  8
Layer_1
 62
7
100
AcDbSpline
 70
8
 71
3
 72
8
 73
4
 74
0
 40
0
 40
0
 40
0
 40
0
 40
1
 40
1
 40
1
 40
1
 10
794.294764
 20
102.013618
 30
0.0
 10
794.841310
 20
101.698070
 30
0.0
 10
795.177996
 20
101.114912
 30
0.0
 10
795.177996
 20
100.483816
 30
0.0
  0
LWPOLYLINE
  5
24f
100
AcDbEntity
  8
Layer_1
 62
7
100
AcDbPolyline
 90
1
 70
1
 10
749.171100
 20
146.490712
 30
0.0
  0
SPLINE
  5
250
100
AcDbEntity
  8
Layer_1
 62
7
100
AcDbSpline
 70
8
 71
3
 72
8
 73
4
 74
0
 40
0
 40
0
 40
0
 40
0
 40
1
 40
1
 40
1
 40
1
 10
774.439136
 20
97.146528
 30
0.0
 10
774.439136
 20
96.515431
 30
0.0
 10
774.102450
 20
95.932274
 30
0.0
 10
773.555904
 20
95.616726
 30
0.0
  0
SPLINE
  5
251
100
AcDbEntity
  8
Layer_1
 62
7
100
AcDbSpline
 70
8
 71
3
 72
8
 73
4
 74
0
 40
0
 40
0
 40
0
 40
0
 40
1
 40
1
 40
1
 40
1
 10
773.555904
 20
95.616726
 30
0.0
 10
773.009358
 20
95.301177
 30
0.0
 10
772.335986
 20
95.301177
 30
0.0
 10
771.789440
 20
95.616726
 30
0.0
  0
SPLINE
  5
252
100
AcDbEntity
  8
Layer_1
 62
7
100
AcDbSpline
 70
8
 71
3
 72
8
 73
4
 74
0
 40
0
 40
0
 40
0
 40
0
 40
1
 40
1
 40
1
 40
1
 10
771.789440
 20
95.616726
 30
0.0
 10
771.242895
 20
95.932274
 30
0.0
 10
770.906209
 20
96.515431
 30
0.0
 10
770.906209
 20
97.146528
 30
0.0
  0
SPLINE
  5
253
100
AcDbEntity
  8
Layer_1
 62
7
100
AcDbSpline
 70
8
 71
3
 72
8
 73
4
 74
0
 40
0
 40
0
 40
0
 40
0
 40
1
 40
1
 40
1
 40
1
 10
770.906209
 20
97.146528
 30
0.0
 10
770.906209
 20
97.777625
 30
0.0
 10
771.242895
 20
98.360782
 30
0.0
 10
771.789440
 20
98.676331
 30
0.0
  0
SPLINE
  5
254
100
AcDbEntity
  8
Layer_1
 62
7
100
AcDbSpline
 70
8
 71
3
 72
8
 73
4
 74
0
 40
0
 40
0
 40
0
 40
0
 40
1
 40
1
 40
1
 40
1
 10
771.789440
 20
98.676331
 30
0.0
 10
772.335986
 20
98.991879
 30
0.0
 10
773.009358
 20
98.991879
 30
0.0
 10
773.555904
 20
98.676331
 30
0.0
  0
SPLINE
  5
255
100
AcDbEntity
  8
Layer_1
 62
7
100
AcDbSpline
 70
8
 71
3
 72
8
 73
4
 74
0
 40
0
 40
0
 40
0
 40
0
 40
1
 40
1
 40
1
 40
1
 10
773.555904
 20
98.676331
 30
0.0
 10
774.102450
 20
98.360782
 30
0.0
 10
774.439136
 20
97.777625
 30
0.0
 10
774.439136
 20
97.146528
 30
0.0
  0
LWPOLYLINE
  5
256
100
AcDbEntity
  8
Layer_1
 62
7
100
AcDbPolyline
 90
1
 70
1
 10
795.177996
 20
100.483816
 30
0.0
  0
SPLINE
  5
257
100
AcDbEntity
  8
Layer_1
 62
7
100
AcDbSpline
 70
8
 71
3
 72
8
 73
4
 74
0
 40
0
 40
0
 40
0
 40
0
 40
1
 40
1
 40
1
 40
1
 10
755.368920
 20
106.681636
 30
0.0
 10
755.368920
 20
106.050539
 30
0.0
 10
755.032234
 20
105.467382
 30
0.0
 10
754.485688
 20
105.151834
 30
0.0
  0
SPLINE
  5
258
100
AcDbEntity
  8
Layer_1
 62
7
100
AcDbSpline
 70
8
 71
3
 72
8
 73
4
 74
0
 40
0
 40
0
 40
0
 40
0
 40
1
 40
1
 40
1
 40
1
 10
754.485688
 20
105.151834
 30
0.0
 10
753.939142
 20
104.836285
 30
0.0
 10
753.265770
 20
104.836285
 30
0.0
 10
752.719224
 20
105.151834
 30
0.0
  0
SPLINE
  5
259
100
AcDbEntity
  8
Layer_1
 62
7
100
AcDbSpline
 70
8
 71
3
 72
8
 73
4
 74
0
 40
0
 40
0
 40
0
 40
0
 40
1
 40
1
 40
1
 40
1
 10
752.719224
 20
105.151834
 30
0.0
 10
752.172678
 20
105.467382
 30
0.0
 10
751.835992
 20
106.050539
 30
0.0
 10
751.835992
 20
106.681636
 30
0.0
  0
SPLINE
  5
25a
100
AcDbEntity
  8
Layer_1
 62
7
100
AcDbSpline
 70
8
 71
3
 72
8
 73
4
 74
0
 40
0
 40
0
 40
0
 40
0
 40
1
 40
1
 40
1
 40
1
 10
751.835992
 20
106.681636
 30
0.0
 10
751.835992
 20
107.312733
 30
0.0
 10
752.172678
 20
107.895890
 30
0.0
 10
752.719224
 20
108.211438
 30
0.0
  0
SPLINE
  5
25b
100
AcDbEntity
  8
Layer_1
 62
7
100
AcDbSpline
 70
8
 71
3
 72
8
 73
4
 74
0
 40
0
 40
0
 40
0
 40
0
 40
1
 40
1
 40
1
 40
1
 10
752.719224
 20
108.211438
 30
0.0
 10
753.265770
 20
108.526987
 30
0.0
 10
753.939142
 20
108.526987
 30
0.0
 10
754.485688
 20
108.211438
 30
0.0
  0
SPLINE
  5
25c
100
AcDbEntity
  8
Layer_1
 62
7
100
AcDbSpline
 70
8
 71
3
 72
8
 73
4
 74
0
 40
0
 40
0
 40
0
 40
0
 40
1
 40
1
 40
1
 40
1
 10
754.485688
 20
108.211438
 30
0.0
 10
755.032234
 20
107.895890
 30
0.0
 10
755.368920
 20
107.312733
 30
0.0
 10
755.368920
 20
106.681636
 30
0.0
  0
LWPOLYLINE
  5
25d
100
AcDbEntity
  8
Layer_1
 62
7
100
AcDbPolyline
 90
1
 70
1
 10
774.439136
 20
97.146528
 30
0.0
  0
LWPOLYLINE
  5
25e
100
AcDbEntity
  8
Layer_1
 62
7
100
AcDbPolyline
 90
1
 70
1
 10
755.368920
 20
106.681636
 30
0.0
  0
SPLINE
  5
25f
100
AcDbEntity
  8
Layer_1
 62
7
100
AcDbSpline
 70
8
 71
3
 72
8
 73
4
 74
0
 40
0
 40
0
 40
0
 40
0
 40
1
 40
1
 40
1
 40
1
 10
914.843600
 20
158.052029
 30
0.0
 10
914.843600
 20
157.420933
 30
0.0
 10
914.506914
 20
156.837775
 30
0.0
 10
913.960368
 20
156.522227
 30
0.0
  0
SPLINE
  5
260
100
AcDbEntity
  8
Layer_1
 62
7
100
AcDbSpline
 70
8
 71
3
 72
8
 73
4
 74
0
 40
0
 40
0
 40
0
 40
0
 40
1
 40
1
 40
1
 40
1
 10
913.960368
 20
156.522227
 30
0.0
 10
913.413823
 20
156.206678
 30
0.0
 10
912.740450
 20
156.206678
 30
0.0
 10
912.193905
 20
156.522227
 30
0.0
  0
SPLINE
  5
261
100
AcDbEntity
  8
Layer_1
 62
7
100
AcDbSpline
 70
8
 71
3
 72
8
 73
4
 74
0
 40
0
 40
0
 40
0
 40
0
 40
1
 40
1
 40
1
 40
1
 10
912.193905
 20
156.522227
 30
0.0
 10
911.647359
 20
156.837775
 30
0.0
 10
911.310673
 20
157.420933
 30
0.0
 10
911.310673
 20
158.052029
 30
0.0
  0
SPLINE
  5
262
100
AcDbEntity
  8
Layer_1
 62
7
100
AcDbSpline
 70
8
 71
3
 72
8
 73
4
 74
0
 40
0
 40
0
 40
0
 40
0
 40
1
 40
1
 40
1
 40
1
 10
911.310673
 20
158.052029
 30
0.0
 10
911.310673
 20
158.683126
 30
0.0
 10
911.647359
 20
159.266283
 30
0.0
 10
912.193905
 20
159.581832
 30
0.0
  0
SPLINE
  5
263
100
AcDbEntity
  8
Layer_1
 62
7
100
AcDbSpline
 70
8
 71
3
 72
8
 73
4
 74
0
 40
0
 40
0
 40
0
 40
0
 40
1
 40
1
 40
1
 40
1
 10
912.193905
 20
159.581832
 30
0.0
 10
912.740450
 20
159.897380
 30
0.0
 10
913.413823
 20
159.897380
 30
0.0
 10
913.960368
 20
159.581832
 30
0.0
  0
SPLINE
  5
264
100
AcDbEntity
  8
Layer_1
 62
7
100
AcDbSpline
 70
8
 71
3
 72
8
 73
4
 74
0
 40
0
 40
0
 40
0
 40
0
 40
1
 40
1
 40
1
 40
1
 10
913.960368
 20
159.581832
 30
0.0
 10
914.506914
 20
159.266283
 30
0.0
 10
914.843600
 20
158.683126
 30
0.0
 10
914.843600
 20
158.052029
 30
0.0
  0
LWPOLYLINE
  5
265
100
AcDbEntity
  8
Layer_1
 62
7
100
AcDbPolyline
 90
320
 70
1
 10
964.366483
 20
129.445154
 30
0.0
 10
965.694930
 20
129.499734
 30
0.0
 10
966.277489
 20
129.455083
 30
0.0
 10
968.203788
 20
128.976635
 30
0.0
 10
968.203788
 20
126.934305
 30
0.0
 10
966.277489
 20
126.455857
 30
0.0
 10
965.694930
 20
126.411206
 30
0.0
 10
964.366483
 20
126.465786
 30
0.0
 10
964.153150
 20
123.755008
 30
0.0
 10
965.473764
 20
123.601106
 30
0.0
 10
966.042169
 20
123.465872
 30
0.0
 10
967.869910
 20
122.691971
 30
0.0
 10
967.550426
 20
120.674788
 30
0.0
 10
965.572983
 20
120.503568
 30
0.0
 10
964.990609
 20
120.550603
 30
0.0
 10
963.687086
 20
120.812323
 30
0.0
 10
963.052298
 20
118.168294
 30
0.0
 10
964.332590
 20
117.809694
 30
0.0
 10
964.872843
 20
117.587208
 30
0.0
 10
966.557021
 20
116.536913
 30
0.0
 10
965.925911
 20
114.594543
 30
0.0
 10
963.946034
 20
114.734773
 30
0.0
 10
963.378185
 20
114.872329
 30
0.0
 10
962.131627
 20
115.334750
 30
0.0
 10
961.091047
 20
112.822573
 30
0.0
 10
962.299479
 20
112.268107
 30
0.0
 10
962.798271
 20
111.963847
 30
0.0
 10
964.297400
 20
110.663020
 30
0.0
 10
963.370221
 20
108.843290
 30
0.0
 10
961.436646
 20
109.291513
 30
0.0
 10
960.897319
 20
109.516208
 30
0.0
 10
959.738444
 20
110.167940
 30
0.0
 10
958.317685
 20
107.849473
 30
0.0
 10
959.424490
 20
107.112796
 30
0.0
 10
959.869545
 20
106.734252
 30
0.0
 10
961.146742
 20
105.214921
 30
0.0
 10
959.946301
 20
103.562643
 30
0.0
 10
958.106653
 20
104.307824
 30
0.0
 10
957.609104
 20
104.614124
 30
0.0
 10
956.566461
 20
105.439116
 30
0.0
 10
954.800499
 20
103.371450
 30
0.0
 10
955.778452
 20
102.470697
 30
0.0
 10
956.158817
 20
102.027192
 30
0.0
 10
957.182596
 20
100.326771
 30
0.0
 10
955.738447
 20
98.882627
 30
0.0
 10
954.038023
 20
99.906417
 30
0.0
 10
953.594528
 20
100.286779
 30
0.0
 10
952.693781
 20
101.264721
 30
0.0
 10
950.626115
 20
99.498768
 30
0.0
 10
951.451112
 20
98.456122
 30
0.0
 10
951.757394
 20
97.958573
 30
0.0
 10
952.502593
 20
96.118933
 30
0.0
 10
950.850296
 20
94.918481
 30
0.0
 10
949.330980
 20
96.195670
 30
0.0
 10
948.952440
 20
96.640731
 30
0.0
 10
948.215761
 20
97.747541
 30
0.0
 10
945.897296
 20
96.326784
 30
0.0
 10
946.549018
 20
95.167917
 30
0.0
 10
946.773702
 20
94.628577
 30
0.0
 10
947.221933
 20
92.695015
 30
0.0
 10
945.402208
 20
91.767817
 30
0.0
 10
944.101384
 20
93.266957
 30
0.0
 10
943.797113
 20
93.765752
 30
0.0
 10
943.242653
 20
94.974179
 30
0.0
 10
940.730487
 20
93.933601
 30
0.0
 10
941.192899
 20
92.687049
 30
0.0
 10
941.330456
 20
92.119200
 30
0.0
 10
941.470685
 20
90.139326
 30
0.0
 10
939.528326
 20
89.508212
 30
0.0
 10
938.478009
 20
91.192388
 30
0.0
 10
938.255521
 20
91.732641
 30
0.0
 10
937.896931
 20
93.012928
 30
0.0
 10
935.252897
 20
92.378153
 30
0.0
 10
935.514623
 20
91.074609
 30
0.0
 10
935.561666
 20
90.492232
 30
0.0
 10
935.390428
 20
88.514797
 30
0.0
 10
933.373244
 20
88.195305
 30
0.0
 10
932.599365
 20
90.023049
 30
0.0
 10
932.464110
 20
90.591456
 30
0.0
 10
932.310228
 20
91.912076
 30
0.0
 10
929.599439
 20
91.698732
 30
0.0
 10
929.654023
 20
90.370296
 30
0.0
 10
929.609361
 20
89.787731
 30
0.0
 10
929.130915
 20
87.861427
 30
0.0
 10
927.088596
 20
87.861427
 30
0.0
 10
926.610150
 20
89.787731
 30
0.0
 10
926.565489
 20
90.370296
 30
0.0
 10
926.620072
 20
91.698732
 30
0.0
 10
923.909284
 20
91.912076
 30
0.0
 10
923.755402
 20
90.591456
 30
0.0
 10
923.620147
 20
90.023049
 30
0.0
 10
922.846267
 20
88.195305
 30
0.0
 10
920.829084
 20
88.514797
 30
0.0
 10
920.657846
 20
90.492232
 30
0.0
 10
920.704889
 20
91.074609
 30
0.0
 10
920.966614
 20
92.378153
 30
0.0
 10
918.322580
 20
93.012928
 30
0.0
 10
917.963990
 20
91.732641
 30
0.0
 10
917.741502
 20
91.192388
 30
0.0
 10
916.691186
 20
89.508212
 30
0.0
 10
914.748827
 20
90.139326
 30
0.0
 10
914.889056
 20
92.119200
 30
0.0
 10
915.026613
 20
92.687049
 30
0.0
 10
915.489025
 20
93.933601
 30
0.0
 10
912.976859
 20
94.974179
 30
0.0
 10
912.422398
 20
93.765752
 30
0.0
 10
912.118128
 20
93.266957
 30
0.0
 10
910.817304
 20
91.767817
 30
0.0
 10
908.997579
 20
92.695015
 30
0.0
 10
909.445809
 20
94.628577
 30
0.0
 10
909.670494
 20
95.167917
 30
0.0
 10
910.322215
 20
96.326784
 30
0.0
 10
908.003751
 20
97.747541
 30
0.0
 10
907.267071
 20
96.640731
 30
0.0
 10
906.888532
 20
96.195670
 30
0.0
 10
905.369215
 20
94.918481
 30
0.0
 10
903.716919
 20
96.118933
 30
0.0
 10
904.462118
 20
97.958573
 30
0.0
 10
904.768399
 20
98.456122
 30
0.0
 10
905.593397
 20
99.498768
 30
0.0
 10
903.525731
 20
101.264721
 30
0.0
 10
902.624983
 20
100.286779
 30
0.0
 10
902.181489
 20
99.906417
 30
0.0
 10
900.481065
 20
98.882627
 30
0.0
 10
899.036916
 20
100.326771
 30
0.0
 10
900.060695
 20
102.027192
 30
0.0
 10
900.441060
 20
102.470697
 30
0.0
 10
901.419013
 20
103.371450
 30
0.0
 10
899.653051
 20
105.439116
 30
0.0
 10
898.610408
 20
104.614124
 30
0.0
 10
898.112859
 20
104.307824
 30
0.0
 10
896.273211
 20
103.562643
 30
0.0
 10
895.072770
 20
105.214921
 30
0.0
 10
896.349966
 20
106.734252
 30
0.0
 10
896.795022
 20
107.112796
 30
0.0
 10
897.901827
 20
107.849473
 30
0.0
 10
896.481067
 20
110.167940
 30
0.0
 10
895.322192
 20
109.516208
 30
0.0
 10
894.782866
 20
109.291513
 30
0.0
 10
892.849291
 20
108.843290
 30
0.0
 10
891.922111
 20
110.663020
 30
0.0
 10
893.421240
 20
111.963847
 30
0.0
 10
893.920033
 20
112.268107
 30
0.0
 10
895.128464
 20
112.822573
 30
0.0
 10
894.087885
 20
115.334750
 30
0.0
 10
892.841327
 20
114.872329
 30
0.0
 10
892.273478
 20
114.734773
 30
0.0
 10
890.293601
 20
114.594543
 30
0.0
 10
889.662490
 20
116.536913
 30
0.0
 10
891.346669
 20
117.587208
 30
0.0
 10
891.886922
 20
117.809694
 30
0.0
 10
893.167214
 20
118.168294
 30
0.0
 10
892.532426
 20
120.812323
 30
0.0
 10
891.228903
 20
120.550603
 30
0.0
 10
890.646529
 20
120.503568
 30
0.0
 10
888.669086
 20
120.674788
 30
0.0
 10
888.349601
 20
122.691971
 30
0.0
 10
890.177343
 20
123.465872
 30
0.0
 10
890.745747
 20
123.601106
 30
0.0
 10
892.066362
 20
123.755008
 30
0.0
 10
891.853029
 20
126.465786
 30
0.0
 10
890.524582
 20
126.411206
 30
0.0
 10
889.942023
 20
126.455857
 30
0.0
 10
888.015724
 20
126.934305
 30
0.0
 10
888.015724
 20
128.976635
 30
0.0
 10
889.942023
 20
129.455083
 30
0.0
 10
890.524582
 20
129.499734
 30
0.0
 10
891.853029
 20
129.445154
 30
0.0
 10
892.066362
 20
132.155931
 30
0.0
 10
890.745747
 20
132.309834
 30
0.0
 10
890.177343
 20
132.445068
 30
0.0
 10
888.349601
 20
133.218969
 30
0.0
 10
888.669086
 20
135.236152
 30
0.0
 10
890.646529
 20
135.407372
 30
0.0
 10
891.228903
 20
135.360337
 30
0.0
 10
892.532426
 20
135.098617
 30
0.0
 10
893.167214
 20
137.742646
 30
0.0
 10
891.886922
 20
138.101246
 30
0.0
 10
891.346669
 20
138.323731
 30
0.0
 10
889.662490
 20
139.374027
 30
0.0
 10
890.293601
 20
141.316396
 30
0.0
 10
892.273478
 20
141.176167
 30
0.0
 10
892.841327
 20
141.038610
 30
0.0
 10
894.087885
 20
140.576190
 30
0.0
 10
895.128464
 20
143.088367
 30
0.0
 10
893.920033
 20
143.642833
 30
0.0
 10
893.421240
 20
143.947093
 30
0.0
 10
891.922111
 20
145.247920
 30
0.0
 10
892.849291
 20
147.067650
 30
0.0
 10
894.782866
 20
146.619427
 30
0.0
 10
895.322192
 20
146.394732
 30
0.0
 10
896.481067
 20
145.743000
 30
0.0
 10
897.901827
 20
148.061467
 30
0.0
 10
896.795022
 20
148.798144
 30
0.0
 10
896.349966
 20
149.176688
 30
0.0
 10
895.072770
 20
150.696019
 30
0.0
 10
896.273211
 20
152.348296
 30
0.0
 10
898.112859
 20
151.603116
 30
0.0
 10
898.610408
 20
151.296816
 30
0.0
 10
899.653051
 20
150.471824
 30
0.0
 10
901.419013
 20
152.539490
 30
0.0
 10
900.441060
 20
153.440242
 30
0.0
 10
900.060695
 20
153.883748
 30
0.0
 10
899.036916
 20
155.584169
 30
0.0
 10
900.481065
 20
157.028313
 30
0.0
 10
902.181489
 20
156.004523
 30
0.0
 10
902.624983
 20
155.624161
 30
0.0
 10
903.525731
 20
154.646219
 30
0.0
 10
905.593397
 20
156.412172
 30
0.0
 10
904.768399
 20
157.454818
 30
0.0
 10
904.462118
 20
157.952367
 30
0.0
 10
903.716919
 20
159.792007
 30
0.0
 10
905.369215
 20
160.992459
 30
0.0
 10
906.888532
 20
159.715270
 30
0.0
 10
907.267071
 20
159.270209
 30
0.0
 10
908.003751
 20
158.163399
 30
0.0
 10
910.322215
 20
159.584156
 30
0.0
 10
909.670494
 20
160.743023
 30
0.0
 10
909.445809
 20
161.282363
 30
0.0
 10
908.997579
 20
163.215925
 30
0.0
 10
910.817304
 20
164.143122
 30
0.0
 10
912.118128
 20
162.643983
 30
0.0
 10
912.422398
 20
162.145188
 30
0.0
 10
912.976859
 20
160.936761
 30
0.0
 10
915.489025
 20
161.977339
 30
0.0
 10
915.026613
 20
163.223891
 30
0.0
 10
914.889056
 20
163.791740
 30
0.0
 10
914.748827
 20
165.771614
 30
0.0
 10
916.691186
 20
166.402728
 30
0.0
 10
917.741502
 20
164.718552
 30
0.0
 10
917.963990
 20
164.178299
 30
0.0
 10
918.322580
 20
162.898012
 30
0.0
 10
920.966614
 20
163.532787
 30
0.0
 10
920.704889
 20
164.836331
 30
0.0
 10
920.657846
 20
165.418708
 30
0.0
 10
920.829084
 20
167.396143
 30
0.0
 10
922.846267
 20
167.715635
 30
0.0
 10
923.620147
 20
165.887891
 30
0.0
 10
923.755402
 20
165.319484
 30
0.0
 10
923.909284
 20
163.998864
 30
0.0
 10
926.620072
 20
164.212208
 30
0.0
 10
926.565489
 20
165.540644
 30
0.0
 10
926.610150
 20
166.123209
 30
0.0
 10
927.088596
 20
168.049513
 30
0.0
 10
929.130915
 20
168.049513
 30
0.0
 10
929.609361
 20
166.123209
 30
0.0
 10
929.654023
 20
165.540644
 30
0.0
 10
929.599439
 20
164.212208
 30
0.0
 10
932.310228
 20
163.998864
 30
0.0
 10
932.464110
 20
165.319484
 30
0.0
 10
932.599365
 20
165.887891
 30
0.0
 10
933.373244
 20
167.715635
 30
0.0
 10
935.390428
 20
167.396143
 30
0.0
 10
935.561666
 20
165.418708
 30
0.0
 10
935.514623
 20
164.836331
 30
0.0
 10
935.252897
 20
163.532787
 30
0.0
 10
937.896931
 20
162.898012
 30
0.0
 10
938.255521
 20
164.178299
 30
0.0
 10
938.478009
 20
164.718552
 30
0.0
 10
939.528326
 20
166.402728
 30
0.0
 10
941.470685
 20
165.771614
 30
0.0
 10
941.330456
 20
163.791740
 30
0.0
 10
941.192899
 20
163.223891
 30
0.0
 10
940.730487
 20
161.977339
 30
0.0
 10
943.242653
 20
160.936761
 30
0.0
 10
943.797113
 20
162.145188
 30
0.0
 10
944.101384
 20
162.643983
 30
0.0
 10
945.402208
 20
164.143122
 30
0.0
 10
947.221933
 20
163.215925
 30
0.0
 10
946.773702
 20
161.282363
 30
0.0
 10
946.549018
 20
160.743023
 30
0.0
 10
945.897296
 20
159.584156
 30
0.0
 10
948.215761
 20
158.163399
 30
0.0
 10
948.952440
 20
159.270209
 30
0.0
 10
949.330980
 20
159.715270
 30
0.0
 10
950.850296
 20
160.992459
 30
0.0
 10
952.502593
 20
159.792007
 30
0.0
 10
951.757394
 20
157.952367
 30
0.0
 10
951.451112
 20
157.454818
 30
0.0
 10
950.626115
 20
156.412172
 30
0.0
 10
952.693781
 20
154.646219
 30
0.0
 10
953.594528
 20
155.624161
 30
0.0
 10
954.038023
 20
156.004523
 30
0.0
 10
955.738447
 20
157.028313
 30
0.0
 10
957.182596
 20
155.584169
 30
0.0
 10
956.158817
 20
153.883748
 30
0.0
 10
955.778452
 20
153.440242
 30
0.0
 10
954.800499
 20
152.539490
 30
0.0
 10
956.566461
 20
150.471824
 30
0.0
 10
957.609104
 20
151.296816
 30
0.0
 10
958.106653
 20
151.603116
 30
0.0
 10
959.946301
 20
152.348296
 30
0.0
 10
961.146742
 20
150.696019
 30
0.0
 10
959.869545
 20
149.176688
 30
0.0
 10
959.424490
 20
148.798144
 30
0.0
 10
958.317685
 20
148.061467
 30
0.0
 10
959.738444
 20
145.743000
 30
0.0
 10
960.897319
 20
146.394732
 30
0.0
 10
961.436646
 20
146.619427
 30
0.0
 10
963.370221
 20
147.067650
 30
0.0
 10
964.297400
 20
145.247920
 30
0.0
 10
962.798271
 20
143.947093
 30
0.0
 10
962.299479
 20
143.642833
 30
0.0
 10
961.091047
 20
143.088367
 30
0.0
 10
962.131627
 20
140.576190
 30
0.0
 10
963.378185
 20
141.038610
 30
0.0
 10
963.946034
 20
141.176167
 30
0.0
 10
965.925911
 20
141.316396
 30
0.0
 10
966.557021
 20
139.374027
 30
0.0
 10
964.872843
 20
138.323731
 30
0.0
 10
964.332590
 20
138.101246
 30
0.0
 10
963.052298
 20
137.742646
 30
0.0
 10
963.687086
 20
135.098617
 30
0.0
 10
964.990609
 20
135.360337
 30
0.0
 10
965.572983
 20
135.407372
 30
0.0
 10
967.550426
 20
135.236152
 30
0.0
 10
967.869910
 20
133.218969
 30
0.0
 10
966.042169
 20
132.445068
 30
0.0
 10
965.473764
 20
132.309834
 30
0.0
 10
964.153150
 20
132.155931
 30
0.0
  0
SPLINE
  5
266
100
AcDbEntity
  8
Layer_1
 62
7
100
AcDbSpline
 70
8
 71
3
 72
8
 73
4
 74
0
 40
0
 40
0
 40
0
 40
0
 40
1
 40
1
 40
1
 40
1
 10
953.699166
 20
151.615832
 30
0.0
 10
953.699166
 20
150.984736
 30
0.0
 10
953.362479
 20
150.401578
 30
0.0
 10
952.815934
 20
150.086030
 30
0.0
  0
SPLINE
  5
267
100
AcDbEntity
  8
Layer_1
 62
7
100
AcDbSpline
 70
8
 71
3
 72
8
 73
4
 74
0
 40
0
 40
0
 40
0
 40
0
 40
1
 40
1
 40
1
 40
1
 10
952.815934
 20
150.086030
 30
0.0
 10
952.269388
 20
149.770482
 30
0.0
 10
951.596016
 20
149.770482
 30
0.0
 10
951.049470
 20
150.086030
 30
0.0
  0
SPLINE
  5
268
100
AcDbEntity
  8
Layer_1
 62
7
100
AcDbSpline
 70
8
 71
3
 72
8
 73
4
 74
0
 40
0
 40
0
 40
0
 40
0
 40
1
 40
1
 40
1
 40
1
 10
951.049470
 20
150.086030
 30
0.0
 10
950.502924
 20
150.401578
 30
0.0
 10
950.166238
 20
150.984736
 30
0.0
 10
950.166238
 20
151.615832
 30
0.0
  0
SPLINE
  5
269
100
AcDbEntity
  8
Layer_1
 62
7
100
AcDbSpline
 70
8
 71
3
 72
8
 73
4
 74
0
 40
0
 40
0
 40
0
 40
0
 40
1
 40
1
 40
1
 40
1
 10
950.166238
 20
151.615832
 30
0.0
 10
950.166238
 20
152.246929
 30
0.0
 10
950.502924
 20
152.830087
 30
0.0
 10
951.049470
 20
153.145635
 30
0.0
  0
SPLINE
  5
26a
100
AcDbEntity
  8
Layer_1
 62
7
100
AcDbSpline
 70
8
 71
3
 72
8
 73
4
 74
0
 40
0
 40
0
 40
0
 40
0
 40
1
 40
1
 40
1
 40
1
 10
951.049470
 20
153.145635
 30
0.0
 10
951.596016
 20
153.461183
 30
0.0
 10
952.269388
 20
153.461183
 30
0.0
 10
952.815934
 20
153.145635
 30
0.0
  0
SPLINE
  5
26b
100
AcDbEntity
  8
Layer_1
 62
7
100
AcDbSpline
 70
8
 71
3
 72
8
 73
4
 74
0
 40
0
 40
0
 40
0
 40
0
 40
1
 40
1
 40
1
 40
1
 10
952.815934
 20
153.145635
 30
0.0
 10
953.362479
 20
152.830087
 30
0.0
 10
953.699166
 20
152.246929
 30
0.0
 10
953.699166
 20
151.615832
 30
0.0
  0
LWPOLYLINE
  5
26c
100
AcDbEntity
  8
Layer_1
 62
7
100
AcDbPolyline
 90
1
 70
1
 10
914.843600
 20
158.052029
 30
0.0
  0
SPLINE
  5
26d
100
AcDbEntity
  8
Layer_1
 62
7
100
AcDbSpline
 70
8
 71
3
 72
8
 73
4
 74
0
 40
0
 40
0
 40
0
 40
0
 40
1
 40
1
 40
1
 40
1
 10
935.224894
 20
161.270127
 30
0.0
 10
935.224894
 20
160.639030
 30
0.0
 10
934.888207
 20
160.055873
 30
0.0
 10
934.341662
 20
159.740325
 30
0.0
  0
SPLINE
  5
26e
100
AcDbEntity
  8
Layer_1
 62
7
100
AcDbSpline
 70
8
 71
3
 72
8
 73
4
 74
0
 40
0
 40
0
 40
0
 40
0
 40
1
 40
1
 40
1
 40
1
 10
934.341662
 20
159.740325
 30
0.0
 10
933.795116
 20
159.424776
 30
0.0
 10
933.121744
 20
159.424776
 30
0.0
 10
932.575198
 20
159.740325
 30
0.0
  0
SPLINE
  5
26f
100
AcDbEntity
  8
Layer_1
 62
7
100
AcDbSpline
 70
8
 71
3
 72
8
 73
4
 74
0
 40
0
 40
0
 40
0
 40
0
 40
1
 40
1
 40
1
 40
1
 10
932.575198
 20
159.740325
 30
0.0
 10
932.028652
 20
160.055873
 30
0.0
 10
931.691966
 20
160.639030
 30
0.0
 10
931.691966
 20
161.270127
 30
0.0
  0
SPLINE
  5
270
100
AcDbEntity
  8
Layer_1
 62
7
100
AcDbSpline
 70
8
 71
3
 72
8
 73
4
 74
0
 40
0
 40
0
 40
0
 40
0
 40
1
 40
1
 40
1
 40
1
 10
931.691966
 20
161.270127
 30
0.0
 10
931.691966
 20
161.901224
 30
0.0
 10
932.028652
 20
162.484381
 30
0.0
 10
932.575198
 20
162.799930
 30
0.0
  0
SPLINE
  5
271
100
AcDbEntity
  8
Layer_1
 62
7
100
AcDbSpline
 70
8
 71
3
 72
8
 73
4
 74
0
 40
0
 40
0
 40
0
 40
0
 40
1
 40
1
 40
1
 40
1
 10
932.575198
 20
162.799930
 30
0.0
 10
933.121744
 20
163.115478
 30
0.0
 10
933.795116
 20
163.115478
 30
0.0
 10
934.341662
 20
162.799930
 30
0.0
  0
SPLINE
  5
272
100
AcDbEntity
  8
Layer_1
 62
7
100
AcDbSpline
 70
8
 71
3
 72
8
 73
4
 74
0
 40
0
 40
0
 40
0
 40
0
 40
1
 40
1
 40
1
 40
1
 10
934.341662
 20
162.799930
 30
0.0
 10
934.888207
 20
162.484381
 30
0.0
 10
935.224894
 20
161.901224
 30
0.0
 10
935.224894
 20
161.270127
 30
0.0
  0
LWPOLYLINE
  5
273
100
AcDbEntity
  8
Layer_1
 62
7
100
AcDbPolyline
 90
1
 70
1
 10
953.699166
 20
151.615832
 30
0.0
  0
SPLINE
  5
274
100
AcDbEntity
  8
Layer_1
 62
7
100
AcDbSpline
 70
8
 71
3
 72
8
 73
4
 74
0
 40
0
 40
0
 40
0
 40
0
 40
1
 40
1
 40
1
 40
1
 10
899.349050
 20
143.391802
 30
0.0
 10
899.349050
 20
142.760705
 30
0.0
 10
899.012364
 20
142.177548
 30
0.0
 10
898.465818
 20
141.862000
 30
0.0
  0
SPLINE
  5
275
100
AcDbEntity
  8
Layer_1
 62
7
100
AcDbSpline
 70
8
 71
3
 72
8
 73
4
 74
0
 40
0
 40
0
 40
0
 40
0
 40
1
 40
1
 40
1
 40
1
 10
898.465818
 20
141.862000
 30
0.0
 10
897.919272
 20
141.546451
 30
0.0
 10
897.245900
 20
141.546451
 30
0.0
 10
896.699354
 20
141.862000
 30
0.0
  0
SPLINE
  5
276
100
AcDbEntity
  8
Layer_1
 62
7
100
AcDbSpline
 70
8
 71
3
 72
8
 73
4
 74
0
 40
0
 40
0
 40
0
 40
0
 40
1
 40
1
 40
1
 40
1
 10
896.699354
 20
141.862000
 30
0.0
 10
896.152809
 20
142.177548
 30
0.0
 10
895.816122
 20
142.760705
 30
0.0
 10
895.816122
 20
143.391802
 30
0.0
  0
SPLINE
  5
277
100
AcDbEntity
  8
Layer_1
 62
7
100
AcDbSpline
 70
8
 71
3
 72
8
 73
4
 74
0
 40
0
 40
0
 40
0
 40
0
 40
1
 40
1
 40
1
 40
1
 10
895.816122
 20
143.391802
 30
0.0
 10
895.816122
 20
144.022899
 30
0.0
 10
896.152809
 20
144.606056
 30
0.0
 10
896.699354
 20
144.921605
 30
0.0
  0
SPLINE
  5
278
100
AcDbEntity
  8
Layer_1
 62
7
100
AcDbSpline
 70
8
 71
3
 72
8
 73
4
 74
0
 40
0
 40
0
 40
0
 40
0
 40
1
 40
1
 40
1
 40
1
 10
896.699354
 20
144.921605
 30
0.0
 10
897.245900
 20
145.237153
 30
0.0
 10
897.919272
 20
145.237153
 30
0.0
 10
898.465818
 20
144.921605
 30
0.0
  0
SPLINE
  5
279
100
AcDbEntity
  8
Layer_1
 62
7
100
AcDbSpline
 70
8
 71
3
 72
8
 73
4
 74
0
 40
0
 40
0
 40
0
 40
0
 40
1
 40
1
 40
1
 40
1
 10
898.465818
 20
144.921605
 30
0.0
 10
899.012364
 20
144.606056
 30
0.0
 10
899.349050
 20
144.022899
 30
0.0
 10
899.349050
 20
143.391802
 30
0.0
  0
LWPOLYLINE
  5
27a
100
AcDbEntity
  8
Layer_1
 62
7
100
AcDbPolyline
 90
1
 70
1
 10
935.224894
 20
161.270127
 30
0.0
  0
SPLINE
  5
27b
100
AcDbEntity
  8
Layer_1
 62
7
100
AcDbSpline
 70
8
 71
3
 72
8
 73
4
 74
0
 40
0
 40
0
 40
0
 40
0
 40
1
 40
1
 40
1
 40
1
 10
960.254554
 20
112.521890
 30
0.0
 10
960.254554
 20
111.890793
 30
0.0
 10
959.917868
 20
111.307636
 30
0.0
 10
959.371322
 20
110.992087
 30
0.0
  0
SPLINE
  5
27c
100
AcDbEntity
  8
Layer_1
 62
7
100
AcDbSpline
 70
8
 71
3
 72
8
 73
4
 74
0
 40
0
 40
0
 40
0
 40
0
 40
1
 40
1
 40
1
 40
1
 10
959.371322
 20
110.992087
 30
0.0
 10
958.824776
 20
110.676539
 30
0.0
 10
958.151404
 20
110.676539
 30
0.0
 10
957.604858
 20
110.992087
 30
0.0
  0
SPLINE
  5
27d
100
AcDbEntity
  8
Layer_1
 62
7
100
AcDbSpline
 70
8
 71
3
 72
8
 73
4
 74
0
 40
0
 40
0
 40
0
 40
0
 40
1
 40
1
 40
1
 40
1
 10
957.604858
 20
110.992087
 30
0.0
 10
957.058312
 20
111.307636
 30
0.0
 10
956.721626
 20
111.890793
 30
0.0
 10
956.721626
 20
112.521890
 30
0.0
  0
SPLINE
  5
27e
100
AcDbEntity
  8
Layer_1
 62
7
100
AcDbSpline
 70
8
 71
3
 72
8
 73
4
 74
0
 40
0
 40
0
 40
0
 40
0
 40
1
 40
1
 40
1
 40
1
 10
956.721626
 20
112.521890
 30
0.0
 10
956.721626
 20
113.152986
 30
0.0
 10
957.058312
 20
113.736144
 30
0.0
 10
957.604858
 20
114.051692
 30
0.0
  0
SPLINE
  5
27f
100
AcDbEntity
  8
Layer_1
 62
7
100
AcDbSpline
 70
8
 71
3
 72
8
 73
4
 74
0
 40
0
 40
0
 40
0
 40
0
 40
1
 40
1
 40
1
 40
1
 10
957.604858
 20
114.051692
 30
0.0
 10
958.151404
 20
114.367240
 30
0.0
 10
958.824776
 20
114.367240
 30
0.0
 10
959.371322
 20
114.051692
 30
0.0
  0
SPLINE
  5
280
100
AcDbEntity
  8
Layer_1
 62
7
100
AcDbSpline
 70
8
 71
3
 72
8
 73
4
 74
0
 40
0
 40
0
 40
0
 40
0
 40
1
 40
1
 40
1
 40
1
 10
959.371322
 20
114.051692
 30
0.0
 10
959.917868
 20
113.736144
 30
0.0
 10
960.254554
 20
113.152986
 30
0.0
 10
960.254554
 20
112.521890
 30
0.0
  0
LWPOLYLINE
  5
281
100
AcDbEntity
  8
Layer_1
 62
7
100
AcDbPolyline
 90
1
 70
1
 10
899.349050
 20
143.391802
 30
0.0
  0
SPLINE
  5
282
100
AcDbEntity
  8
Layer_1
 62
7
100
AcDbSpline
 70
8
 71
3
 72
8
 73
4
 74
0
 40
0
 40
0
 40
0
 40
0
 40
1
 40
1
 40
1
 40
1
 10
945.355948
 20
97.384904
 30
0.0
 10
945.355948
 20
96.753808
 30
0.0
 10
945.019262
 20
96.170650
 30
0.0
 10
944.472716
 20
95.855102
 30
0.0
  0
SPLINE
  5
283
100
AcDbEntity
  8
Layer_1
 62
7
100
AcDbSpline
 70
8
 71
3
 72
8
 73
4
 74
0
 40
0
 40
0
 40
0
 40
0
 40
1
 40
1
 40
1
 40
1
 10
944.472716
 20
95.855102
 30
0.0
 10
943.926171
 20
95.539554
 30
0.0
 10
943.252798
 20
95.539554
 30
0.0
 10
942.706253
 20
95.855102
 30
0.0
  0
SPLINE
  5
284
100
AcDbEntity
  8
Layer_1
 62
7
100
AcDbSpline
 70
8
 71
3
 72
8
 73
4
 74
0
 40
0
 40
0
 40
0
 40
0
 40
1
 40
1
 40
1
 40
1
 10
942.706253
 20
95.855102
 30
0.0
 10
942.159707
 20
96.170650
 30
0.0
 10
941.823021
 20
96.753808
 30
0.0
 10
941.823021
 20
97.384904
 30
0.0
  0
SPLINE
  5
285
100
AcDbEntity
  8
Layer_1
 62
7
100
AcDbSpline
 70
8
 71
3
 72
8
 73
4
 74
0
 40
0
 40
0
 40
0
 40
0
 40
1
 40
1
 40
1
 40
1
 10
941.823021
 20
97.384904
 30
0.0
 10
941.823021
 20
98.016001
 30
0.0
 10
942.159707
 20
98.599159
 30
0.0
 10
942.706253
 20
98.914707
 30
0.0
  0
SPLINE
  5
286
100
AcDbEntity
  8
Layer_1
 62
7
100
AcDbSpline
 70
8
 71
3
 72
8
 73
4
 74
0
 40
0
 40
0
 40
0
 40
0
 40
1
 40
1
 40
1
 40
1
 10
942.706253
 20
98.914707
 30
0.0
 10
943.252798
 20
99.230255
 30
0.0
 10
943.926171
 20
99.230255
 30
0.0
 10
944.472716
 20
98.914707
 30
0.0
  0
SPLINE
  5
287
100
AcDbEntity
  8
Layer_1
 62
7
100
AcDbSpline
 70
8
 71
3
 72
8
 73
4
 74
0
 40
0
 40
0
 40
0
 40
0
 40
1
 40
1
 40
1
 40
1
 10
944.472716
 20
98.914707
 30
0.0
 10
945.019262
 20
98.599159
 30
0.0
 10
945.355948
 20
98.016001
 30
0.0
 10
945.355948
 20
97.384904
 30
0.0
  0
LWPOLYLINE
  5
288
100
AcDbEntity
  8
Layer_1
 62
7
100
AcDbPolyline
 90
1
 70
1
 10
960.254554
 20
112.521890
 30
0.0
  0
SPLINE
  5
289
100
AcDbEntity
  8
Layer_1
 62
7
100
AcDbSpline
 70
8
 71
3
 72
8
 73
4
 74
0
 40
0
 40
0
 40
0
 40
0
 40
1
 40
1
 40
1
 40
1
 10
924.617086
 20
94.047617
 30
0.0
 10
924.617086
 20
93.416520
 30
0.0
 10
924.280400
 20
92.833363
 30
0.0
 10
923.733854
 20
92.517815
 30
0.0
  0
SPLINE
  5
28a
100
AcDbEntity
  8
Layer_1
 62
7
100
AcDbSpline
 70
8
 71
3
 72
8
 73
4
 74
0
 40
0
 40
0
 40
0
 40
0
 40
1
 40
1
 40
1
 40
1
 10
923.733854
 20
92.517815
 30
0.0
 10
923.187309
 20
92.202266
 30
0.0
 10
922.513936
 20
92.202266
 30
0.0
 10
921.967391
 20
92.517815
 30
0.0
  0
SPLINE
  5
28b
100
AcDbEntity
  8
Layer_1
 62
7
100
AcDbSpline
 70
8
 71
3
 72
8
 73
4
 74
0
 40
0
 40
0
 40
0
 40
0
 40
1
 40
1
 40
1
 40
1
 10
921.967391
 20
92.517815
 30
0.0
 10
921.420845
 20
92.833363
 30
0.0
 10
921.084159
 20
93.416520
 30
0.0
 10
921.084159
 20
94.047617
 30
0.0
  0
SPLINE
  5
28c
100
AcDbEntity
  8
Layer_1
 62
7
100
AcDbSpline
 70
8
 71
3
 72
8
 73
4
 74
0
 40
0
 40
0
 40
0
 40
0
 40
1
 40
1
 40
1
 40
1
 10
921.084159
 20
94.047617
 30
0.0
 10
921.084159
 20
94.678714
 30
0.0
 10
921.420845
 20
95.261871
 30
0.0
 10
921.967391
 20
95.577419
 30
0.0
  0
SPLINE
  5
28d
100
AcDbEntity
  8
Layer_1
 62
7
100
AcDbSpline
 70
8
 71
3
 72
8
 73
4
 74
0
 40
0
 40
0
 40
0
 40
0
 40
1
 40
1
 40
1
 40
1
 10
921.967391
 20
95.577419
 30
0.0
 10
922.513936
 20
95.892968
 30
0.0
 10
923.187309
 20
95.892968
 30
0.0
 10
923.733854
 20
95.577419
 30
0.0
  0
SPLINE
  5
28e
100
AcDbEntity
  8
Layer_1
 62
7
100
AcDbSpline
 70
8
 71
3
 72
8
 73
4
 74
0
 40
0
 40
0
 40
0
 40
0
 40
1
 40
1
 40
1
 40
1
 10
923.733854
 20
95.577419
 30
0.0
 10
924.280400
 20
95.261871
 30
0.0
 10
924.617086
 20
94.678714
 30
0.0
 10
924.617086
 20
94.047617
 30
0.0
  0
LWPOLYLINE
  5
28f
100
AcDbEntity
  8
Layer_1
 62
7
100
AcDbPolyline
 90
1
 70
1
 10
945.355948
 20
97.384904
 30
0.0
  0
SPLINE
  5
290
100
AcDbEntity
  8
Layer_1
 62
7
100
AcDbSpline
 70
8
 71
3
 72
8
 73
4
 74
0
 40
0
 40
0
 40
0
 40
0
 40
1
 40
1
 40
1
 40
1
 10
905.546869
 20
103.582726
 30
0.0
 10
905.546869
 20
102.951629
 30
0.0
 10
905.210183
 20
102.368472
 30
0.0
 10
904.663638
 20
102.052923
 30
0.0
  0
SPLINE
  5
291
100
AcDbEntity
  8
Layer_1
 62
7
100
AcDbSpline
 70
8
 71
3
 72
8
 73
4
 74
0
 40
0
 40
0
 40
0
 40
0
 40
1
 40
1
 40
1
 40
1
 10
904.663638
 20
102.052923
 30
0.0
 10
904.117092
 20
101.737375
 30
0.0
 10
903.443720
 20
101.737375
 30
0.0
 10
902.897174
 20
102.052923
 30
0.0
  0
SPLINE
  5
292
100
AcDbEntity
  8
Layer_1
 62
7
100
AcDbSpline
 70
8
 71
3
 72
8
 73
4
 74
0
 40
0
 40
0
 40
0
 40
0
 40
1
 40
1
 40
1
 40
1
 10
902.897174
 20
102.052923
 30
0.0
 10
902.350628
 20
102.368472
 30
0.0
 10
902.013942
 20
102.951629
 30
0.0
 10
902.013942
 20
103.582726
 30
0.0
  0
SPLINE
  5
293
100
AcDbEntity
  8
Layer_1
 62
7
100
AcDbSpline
 70
8
 71
3
 72
8
 73
4
 74
0
 40
0
 40
0
 40
0
 40
0
 40
1
 40
1
 40
1
 40
1
 10
902.013942
 20
103.582726
 30
0.0
 10
902.013942
 20
104.213823
 30
0.0
 10
902.350628
 20
104.796980
 30
0.0
 10
902.897174
 20
105.112528
 30
0.0
  0
SPLINE
  5
294
100
AcDbEntity
  8
Layer_1
 62
7
100
AcDbSpline
 70
8
 71
3
 72
8
 73
4
 74
0
 40
0
 40
0
 40
0
 40
0
 40
1
 40
1
 40
1
 40
1
 10
902.897174
 20
105.112528
 30
0.0
 10
903.443720
 20
105.428077
 30
0.0
 10
904.117092
 20
105.428077
 30
0.0
 10
904.663638
 20
105.112528
 30
0.0
  0
SPLINE
  5
295
100
AcDbEntity
  8
Layer_1
 62
7
100
AcDbSpline
 70
8
 71
3
 72
8
 73
4
 74
0
 40
0
 40
0
 40
0
 40
0
 40
1
 40
1
 40
1
 40
1
 10
904.663638
 20
105.112528
 30
0.0
 10
905.210183
 20
104.796980
 30
0.0
 10
905.546869
 20
104.213823
 30
0.0
 10
905.546869
 20
103.582726
 30
0.0
  0
LWPOLYLINE
  5
296
100
AcDbEntity
  8
Layer_1
 62
7
100
AcDbPolyline
 90
1
 70
1
 10
924.617086
 20
94.047617
 30
0.0
  0
LWPOLYLINE
  5
297
100
AcDbEntity
  8
Layer_1
 62
7
100
AcDbPolyline
 90
1
 70
1
 10
905.546869
 20
103.582726
 30
0.0
  0
SPLINE
  5
298
100
AcDbEntity
  8
Layer_1
 62
7
100
AcDbSpline
 70
8
 71
3
 72
8
 73
4
 74
0
 40
0
 40
0
 40
0
 40
0
 40
1
 40
1
 40
1
 40
1
 10
780.586496
 20
22.097070
 30
0.0
 10
780.586496
 20
21.130572
 30
0.0
 10
779.802994
 20
20.347070
 30
0.0
 10
778.836496
 20
20.347070
 30
0.0
  0
SPLINE
  5
299
100
AcDbEntity
  8
Layer_1
 62
7
100
AcDbSpline
 70
8
 71
3
 72
8
 73
4
 74
0
 40
0
 40
0
 40
0
 40
0
 40
1
 40
1
 40
1
 40
1
 10
778.836496
 20
20.347070
 30
0.0
 10
777.869998
 20
20.347070
 30
0.0
 10
777.086496
 20
21.130572
 30
0.0
 10
777.086496
 20
22.097070
 30
0.0
  0
SPLINE
  5
29a
100
AcDbEntity
  8
Layer_1
 62
7
100
AcDbSpline
 70
8
 71
3
 72
8
 73
4
 74
0
 40
0
 40
0
 40
0
 40
0
 40
1
 40
1
 40
1
 40
1
 10
777.086496
 20
22.097070
 30
0.0
 10
777.086496
 20
23.063568
 30
0.0
 10
777.869998
 20
23.847070
 30
0.0
 10
778.836496
 20
23.847070
 30
0.0
  0
SPLINE
  5
29b
100
AcDbEntity
  8
Layer_1
 62
7
100
AcDbSpline
 70
8
 71
3
 72
8
 73
4
 74
0
 40
0
 40
0
 40
0
 40
0
 40
1
 40
1
 40
1
 40
1
 10
778.836496
 20
23.847070
 30
0.0
 10
779.802994
 20
23.847070
 30
0.0
 10
780.586496
 20
23.063568
 30
0.0
 10
780.586496
 20
22.097070
 30
0.0
  0
LWPOLYLINE
  5
29c
100
AcDbEntity
  8
Layer_1
 62
7
100
AcDbPolyline
 90
400
 70
1
 10
824.647846
 20
23.619025
 30
0.0
 10
825.831674
 20
23.658352
 30
0.0
 10
826.559418
 20
23.596824
 30
0.0
 10
828.481883
 20
23.140031
 30
0.0
 10
828.481883
 20
21.054109
 30
0.0
 10
826.559418
 20
20.597316
 30
0.0
 10
825.831674
 20
20.535788
 30
0.0
 10
824.647846
 20
20.575115
 30
0.0
 10
824.477362
 20
17.865337
 30
0.0
 10
825.656784
 20
17.755985
 30
0.0
 10
826.371077
 20
17.603728
 30
0.0
 10
828.221134
 20
16.909588
 30
0.0
 10
827.959699
 20
14.840118
 30
0.0
 10
825.995141
 20
14.627875
 30
0.0
 10
825.265423
 20
14.658040
 30
0.0
 10
824.095856
 20
14.845434
 30
0.0
 10
823.587092
 20
12.178389
 30
0.0
 10
824.743511
 20
11.922076
 30
0.0
 10
825.433090
 20
11.681498
 30
0.0
 10
827.181557
 20
10.760957
 30
0.0
 10
826.662809
 20
8.740570
 30
0.0
 10
824.687142
 20
8.776225
 30
0.0
 10
823.966959
 20
8.897611
 30
0.0
 10
822.830103
 20
9.230113
 30
0.0
 10
821.991080
 20
6.647864
 30
0.0
 10
823.106254
 20
6.248634
 30
0.0
 10
823.760243
 20
5.923525
 30
0.0
 10
825.379548
 20
4.791103
 30
0.0
 10
824.611672
 20
2.851665
 30
0.0
 10
822.656052
 20
3.134655
 30
0.0
 10
821.956761
 20
3.345345
 30
0.0
 10
820.870543
 20
3.817711
 30
0.0
 10
819.714494
 20
1.360984
 30
0.0
 10
820.770840
 20
0.825134
 30
0.0
 10
821.378924
 20
0.420620
 30
0.0
 10
822.843530
 20
-0.905826
 30
0.0
 10
821.838632
 20
-2.733732
 30
0.0
 10
819.933900
 20
-2.207867
 30
0.0
 10
819.266530
 20
-1.911193
 30
0.0
 10
818.248080
 20
-1.306413
 30
0.0
 10
816.793237
 20
-3.598880
 30
0.0
 10
817.774093
 20
-4.262899
 30
0.0
 10
818.326685
 20
-4.740435
 30
0.0
 10
819.613494
 20
-6.239985
 30
0.0
 10
818.387423
 20
-7.927529
 30
0.0
 10
816.563619
 20
-7.167085
 30
0.0
 10
815.938697
 20
-6.789106
 30
0.0
 10
815.004074
 20
-6.061452
 30
0.0
 10
813.273382
 20
-8.153499
 30
0.0
 10
814.163279
 20
-8.935219
 30
0.0
 10
814.651660
 20
-9.478247
 30
0.0
 10
815.740381
 20
-11.127252
 30
0.0
 10
814.312472
 20
-12.647823
 30
0.0
 10
812.598358
 20
-11.664793
 30
0.0
 10
812.025734
 20
-11.211471
 30
0.0
 10
811.189682
 20
-10.372414
 30
0.0
 10
809.210435
 20
-12.231051
 30
0.0
 10
809.995340
 20
-13.118138
 30
0.0
 10
810.411813
 20
-13.718094
 30
0.0
 10
811.285271
 20
-15.490551
 30
0.0
 10
809.678044
 20
-16.820167
 30
0.0
 10
808.100651
 20
-15.630053
 30
0.0
 10
807.589362
 20
-15.108538
 30
0.0
 10
806.865062
 20
-14.171312
 30
0.0
 10
804.668473
 20
-15.767229
 30
0.0
 10
805.336006
 20
-16.745695
 30
0.0
 10
805.674001
 20
-17.393120
 30
0.0
 10
806.318425
 20
-19.261073
 30
0.0
 10
804.557224
 20
-20.378763
 30
0.0
 10
803.141433
 20
-19.000334
 30
0.0
 10
802.699537
 20
-18.418848
 30
0.0
 10
802.098416
 20
-17.398234
 30
0.0
 10
799.719124
 20
-18.706263
 30
0.0
 10
800.258761
 20
-19.760677
 30
0.0
 10
800.512946
 20
-20.445358
 30
0.0
 10
800.918171
 20
-22.379349
 30
0.0
 10
799.030776
 20
-23.267491
 30
0.0
 10
797.798911
 20
-21.722486
 30
0.0
 10
797.433378
 20
-21.090201
 30
0.0
 10
796.964915
 20
-20.002295
 30
0.0
 10
794.440446
 20
-21.001803
 30
0.0
 10
794.843674
 20
-22.115538
 30
0.0
 10
795.010041
 20
-22.826677
 30
0.0
 10
795.169677
 20
-24.796206
 30
0.0
 10
793.185850
 20
-25.440792
 30
0.0
 10
792.157341
 20
-23.753576
 30
0.0
 10
791.873937
 20
-23.080465
 30
0.0
 10
791.545518
 20
-21.942421
 30
0.0
 10
788.915682
 20
-22.617648
 30
0.0
 10
789.176143
 20
-23.773139
 30
0.0
 10
789.252067
 20
-24.499524
 30
0.0
 10
789.163601
 20
-26.473530
 30
0.0
 10
787.114628
 20
-26.864393
 30
0.0
 10
786.305691
 20
-25.061575
 30
0.0
 10
786.108886
 20
-24.358249
 30
0.0
 10
785.925691
 20
-23.188021
 30
0.0
 10
783.231966
 20
-23.528318
 30
0.0
 10
783.345549
 20
-24.707341
 30
0.0
 10
783.329838
 20
-25.437511
 30
0.0
 10
782.994658
 20
-27.384866
 30
0.0
 10
780.912853
 20
-27.515842
 30
0.0
 10
780.336249
 20
-25.625852
 30
0.0
 10
780.229146
 20
-24.903407
 30
0.0
 10
780.194065
 20
-23.719445
 30
0.0
 10
777.478927
 20
-23.719445
 30
0.0
 10
777.443846
 20
-24.903407
 30
0.0
 10
777.336742
 20
-25.625852
 30
0.0
 10
776.760138
 20
-27.515842
 30
0.0
 10
774.678333
 20
-27.384866
 30
0.0
 10
774.343154
 20
-25.437511
 30
0.0
 10
774.327443
 20
-24.707341
 30
0.0
 10
774.441026
 20
-23.528318
 30
0.0
 10
771.747300
 20
-23.188021
 30
0.0
 10
771.564105
 20
-24.358249
 30
0.0
 10
771.367300
 20
-25.061575
 30
0.0
 10
770.558363
 20
-26.864393
 30
0.0
 10
768.509390
 20
-26.473530
 30
0.0
 10
768.420924
 20
-24.499524
 30
0.0
 10
768.496849
 20
-23.773139
 30
0.0
 10
768.757310
 20
-22.617648
 30
0.0
 10
766.127474
 20
-21.942421
 30
0.0
 10
765.799054
 20
-23.080465
 30
0.0
 10
765.515651
 20
-23.753576
 30
0.0
 10
764.487142
 20
-25.440792
 30
0.0
 10
762.503314
 20
-24.796206
 30
0.0
 10
762.662951
 20
-22.826677
 30
0.0
 10
762.829318
 20
-22.115538
 30
0.0
 10
763.232546
 20
-21.001803
 30
0.0
 10
760.708077
 20
-20.002295
 30
0.0
 10
760.239613
 20
-21.090201
 30
0.0
 10
759.874081
 20
-21.722486
 30
0.0
 10
758.642215
 20
-23.267491
 30
0.0
 10
756.754821
 20
-22.379349
 30
0.0
 10
757.160046
 20
-20.445358
 30
0.0
 10
757.414231
 20
-19.760677
 30
0.0
 10
757.953867
 20
-18.706263
 30
0.0
 10
755.574575
 20
-17.398234
 30
0.0
 10
754.973455
 20
-18.418848
 30
0.0
 10
754.531559
 20
-19.000334
 30
0.0
 10
753.115768
 20
-20.378763
 30
0.0
 10
751.354566
 20
-19.261073
 30
0.0
 10
751.998991
 20
-17.393120
 30
0.0
 10
752.336985
 20
-16.745695
 30
0.0
 10
753.004519
 20
-15.767229
 30
0.0
 10
750.807929
 20
-14.171312
 30
0.0
 10
750.083630
 20
-15.108538
 30
0.0
 10
749.572341
 20
-15.630053
 30
0.0
 10
747.994948
 20
-16.820167
 30
0.0
 10
746.387721
 20
-15.490551
 30
0.0
 10
747.261179
 20
-13.718094
 30
0.0
 10
747.677652
 20
-13.118138
 30
0.0
 10
748.462557
 20
-12.231051
 30
0.0
 10
746.483309
 20
-10.372414
 30
0.0
 10
745.647258
 20
-11.211471
 30
0.0
 10
745.074633
 20
-11.664793
 30
0.0
 10
743.360520
 20
-12.647823
 30
0.0
 10
741.932611
 20
-11.127252
 30
0.0
 10
743.021332
 20
-9.478247
 30
0.0
 10
743.509713
 20
-8.935219
 30
0.0
 10
744.399610
 20
-8.153499
 30
0.0
 10
742.668917
 20
-6.061452
 30
0.0
 10
741.734295
 20
-6.789106
 30
0.0
 10
741.109373
 20
-7.167085
 30
0.0
 10
739.285568
 20
-7.927529
 30
0.0
 10
738.059497
 20
-6.239985
 30
0.0
 10
739.346306
 20
-4.740435
 30
0.0
 10
739.898899
 20
-4.262899
 30
0.0
 10
740.879754
 20
-3.598880
 30
0.0
 10
739.424911
 20
-1.306413
 30
0.0
 10
738.406461
 20
-1.911193
 30
0.0
 10
737.739092
 20
-2.207867
 30
0.0
 10
735.834359
 20
-2.733732
 30
0.0
 10
734.829461
 20
-0.905826
 30
0.0
 10
736.294068
 20
0.420620
 30
0.0
 10
736.902152
 20
0.825134
 30
0.0
 10
737.958498
 20
1.360984
 30
0.0
 10
736.802449
 20
3.817711
 30
0.0
 10
735.716231
 20
3.345345
 30
0.0
 10
735.016940
 20
3.134655
 30
0.0
 10
733.061320
 20
2.851665
 30
0.0
 10
732.293443
 20
4.791103
 30
0.0
 10
733.912749
 20
5.923525
 30
0.0
 10
734.566738
 20
6.248634
 30
0.0
 10
735.681912
 20
6.647864
 30
0.0
 10
734.842889
 20
9.230113
 30
0.0
 10
733.706032
 20
8.897611
 30
0.0
 10
732.985850
 20
8.776225
 30
0.0
 10
731.010182
 20
8.740570
 30
0.0
 10
730.491435
 20
10.760957
 30
0.0
 10
732.239902
 20
11.681498
 30
0.0
 10
732.929480
 20
11.922076
 30
0.0
 10
734.085900
 20
12.178389
 30
0.0
 10
733.577135
 20
14.845434
 30
0.0
 10
732.407569
 20
14.658040
 30
0.0
 10
731.677850
 20
14.627875
 30
0.0
 10
729.713293
 20
14.840118
 30
0.0
 10
729.451858
 20
16.909588
 30
0.0
 10
731.301915
 20
17.603728
 30
0.0
 10
732.016208
 20
17.755985
 30
0.0
 10
733.195630
 20
17.865337
 30
0.0
 10
733.025146
 20
20.575115
 30
0.0
 10
731.841318
 20
20.535788
 30
0.0
 10
731.113574
 20
20.597316
 30
0.0
 10
729.191108
 20
21.054109
 30
0.0
 10
729.191108
 20
23.140031
 30
0.0
 10
731.113574
 20
23.596824
 30
0.0
 10
731.841318
 20
23.658352
 30
0.0
 10
733.025146
 20
23.619025
 30
0.0
 10
733.195630
 20
26.328803
 30
0.0
 10
732.016208
 20
26.438155
 30
0.0
 10
731.301915
 20
26.590412
 30
0.0
 10
729.451858
 20
27.284552
 30
0.0
 10
729.713293
 20
29.354022
 30
0.0
 10
731.677850
 20
29.566265
 30
0.0
 10
732.407569
 20
29.536100
 30
0.0
 10
733.577135
 20
29.348707
 30
0.0
 10
734.085900
 20
32.015751
 30
0.0
 10
732.929480
 20
32.272064
 30
0.0
 10
732.239902
 20
32.512642
 30
0.0
 10
730.491435
 20
33.433183
 30
0.0
 10
731.010182
 20
35.453570
 30
0.0
 10
732.985850
 20
35.417915
 30
0.0
 10
733.706032
 20
35.296529
 30
0.0
 10
734.842889
 20
34.964027
 30
0.0
 10
735.681912
 20
37.546276
 30
0.0
 10
734.566738
 20
37.945506
 30
0.0
 10
733.912749
 20
38.270615
 30
0.0
 10
732.293443
 20
39.403037
 30
0.0
 10
733.061320
 20
41.342475
 30
0.0
 10
735.016940
 20
41.059485
 30
0.0
 10
735.716231
 20
40.848795
 30
0.0
 10
736.802449
 20
40.376429
 30
0.0
 10
737.958498
 20
42.833156
 30
0.0
 10
736.902152
 20
43.369006
 30
0.0
 10
736.294068
 20
43.773520
 30
0.0
 10
734.829461
 20
45.099966
 30
0.0
 10
735.834359
 20
46.927872
 30
0.0
 10
737.739092
 20
46.402007
 30
0.0
 10
738.406461
 20
46.105333
 30
0.0
 10
739.424911
 20
45.500553
 30
0.0
 10
740.879754
 20
47.793020
 30
0.0
 10
739.898899
 20
48.457039
 30
0.0
 10
739.346306
 20
48.934575
 30
0.0
 10
738.059497
 20
50.434125
 30
0.0
 10
739.285568
 20
52.121669
 30
0.0
 10
741.109373
 20
51.361225
 30
0.0
 10
741.734295
 20
50.983246
 30
0.0
 10
742.668917
 20
50.255592
 30
0.0
 10
744.399610
 20
52.347639
 30
0.0
 10
743.509713
 20
53.129359
 30
0.0
 10
743.021332
 20
53.672387
 30
0.0
 10
741.932611
 20
55.321392
 30
0.0
 10
743.360520
 20
56.841963
 30
0.0
 10
745.074633
 20
55.858933
 30
0.0
 10
745.647258
 20
55.405611
 30
0.0
 10
746.483309
 20
54.566554
 30
0.0
 10
748.462557
 20
56.425191
 30
0.0
 10
747.677652
 20
57.312278
 30
0.0
 10
747.261179
 20
57.912234
 30
0.0
 10
746.387721
 20
59.684691
 30
0.0
 10
747.994948
 20
61.014307
 30
0.0
 10
749.572341
 20
59.824193
 30
0.0
 10
750.083630
 20
59.302678
 30
0.0
 10
750.807929
 20
58.365452
 30
0.0
 10
753.004519
 20
59.961369
 30
0.0
 10
752.336985
 20
60.939835
 30
0.0
 10
751.998991
 20
61.587260
 30
0.0
 10
751.354566
 20
63.455213
 30
0.0
 10
753.115768
 20
64.572903
 30
0.0
 10
754.531559
 20
63.194474
 30
0.0
 10
754.973455
 20
62.612988
 30
0.0
 10
755.574575
 20
61.592374
 30
0.0
 10
757.953867
 20
62.900403
 30
0.0
 10
757.414231
 20
63.954817
 30
0.0
 10
757.160046
 20
64.639498
 30
0.0
 10
756.754821
 20
66.573489
 30
0.0
 10
758.642215
 20
67.461631
 30
0.0
 10
759.874081
 20
65.916626
 30
0.0
 10
760.239613
 20
65.284341
 30
0.0
 10
760.708077
 20
64.196435
 30
0.0
 10
763.232546
 20
65.195943
 30
0.0
 10
762.829318
 20
66.309678
 30
0.0
 10
762.662951
 20
67.020817
 30
0.0
 10
762.503314
 20
68.990346
 30
0.0
 10
764.487142
 20
69.634932
 30
0.0
 10
765.515651
 20
67.947716
 30
0.0
 10
765.799054
 20
67.274605
 30
0.0
 10
766.127474
 20
66.136561
 30
0.0
 10
768.757310
 20
66.811788
 30
0.0
 10
768.496849
 20
67.967279
 30
0.0
 10
768.420924
 20
68.693664
 30
0.0
 10
768.509390
 20
70.667670
 30
0.0
 10
770.558363
 20
71.058533
 30
0.0
 10
771.367300
 20
69.255715
 30
0.0
 10
771.564105
 20
68.552389
 30
0.0
 10
771.747300
 20
67.382161
 30
0.0
 10
774.441026
 20
67.722458
 30
0.0
 10
774.327443
 20
68.901481
 30
0.0
 10
774.343154
 20
69.631651
 30
0.0
 10
774.678333
 20
71.579006
 30
0.0
 10
776.760138
 20
71.709982
 30
0.0
 10
777.336742
 20
69.819992
 30
0.0
 10
777.443846
 20
69.097548
 30
0.0
 10
777.478927
 20
67.913585
 30
0.0
 10
780.194065
 20
67.913585
 30
0.0
 10
780.229146
 20
69.097548
 30
0.0
 10
780.336249
 20
69.819992
 30
0.0
 10
780.912853
 20
71.709982
 30
0.0
 10
782.994658
 20
71.579006
 30
0.0
 10
783.329838
 20
69.631651
 30
0.0
 10
783.345549
 20
68.901481
 30
0.0
 10
783.231966
 20
67.722458
 30
0.0
 10
785.925691
 20
67.382161
 30
0.0
 10
786.108886
 20
68.552389
 30
0.0
 10
786.305691
 20
69.255715
 30
0.0
 10
787.114628
 20
71.058533
 30
0.0
 10
789.163601
 20
70.667670
 30
0.0
 10
789.252067
 20
68.693664
 30
0.0
 10
789.176143
 20
67.967279
 30
0.0
 10
788.915682
 20
66.811788
 30
0.0
 10
791.545518
 20
66.136561
 30
0.0
 10
791.873937
 20
67.274605
 30
0.0
 10
792.157341
 20
67.947716
 30
0.0
 10
793.185850
 20
69.634932
 30
0.0
 10
795.169677
 20
68.990346
 30
0.0
 10
795.010041
 20
67.020817
 30
0.0
 10
794.843674
 20
66.309678
 30
0.0
 10
794.440446
 20
65.195943
 30
0.0
 10
796.964915
 20
64.196435
 30
0.0
 10
797.433378
 20
65.284341
 30
0.0
 10
797.798911
 20
65.916626
 30
0.0
 10
799.030776
 20
67.461631
 30
0.0
 10
800.918171
 20
66.573489
 30
0.0
 10
800.512946
 20
64.639498
 30
0.0
 10
800.258761
 20
63.954817
 30
0.0
 10
799.719124
 20
62.900403
 30
0.0
 10
802.098416
 20
61.592374
 30
0.0
 10
802.699537
 20
62.612988
 30
0.0
 10
803.141433
 20
63.194474
 30
0.0
 10
804.557224
 20
64.572903
 30
0.0
 10
806.318425
 20
63.455213
 30
0.0
 10
805.674001
 20
61.587260
 30
0.0
 10
805.336006
 20
60.939835
 30
0.0
 10
804.668473
 20
59.961369
 30
0.0
 10
806.865062
 20
58.365452
 30
0.0
 10
807.589362
 20
59.302678
 30
0.0
 10
808.100651
 20
59.824193
 30
0.0
 10
809.678044
 20
61.014307
 30
0.0
 10
811.285271
 20
59.684691
 30
0.0
 10
810.411813
 20
57.912234
 30
0.0
 10
809.995340
 20
57.312278
 30
0.0
 10
809.210435
 20
56.425191
 30
0.0
 10
811.189682
 20
54.566554
 30
0.0
 10
812.025734
 20
55.405611
 30
0.0
 10
812.598358
 20
55.858933
 30
0.0
 10
814.312472
 20
56.841963
 30
0.0
 10
815.740381
 20
55.321392
 30
0.0
 10
814.651660
 20
53.672387
 30
0.0
 10
814.163279
 20
53.129359
 30
0.0
 10
813.273382
 20
52.347639
 30
0.0
 10
815.004074
 20
50.255592
 30
0.0
 10
815.938697
 20
50.983246
 30
0.0
 10
816.563619
 20
51.361225
 30
0.0
 10
818.387423
 20
52.121669
 30
0.0
 10
819.613494
 20
50.434125
 30
0.0
 10
818.326685
 20
48.934575
 30
0.0
 10
817.774093
 20
48.457039
 30
0.0
 10
816.793237
 20
47.793020
 30
0.0
 10
818.248080
 20
45.500553
 30
0.0
 10
819.266530
 20
46.105333
 30
0.0
 10
819.933900
 20
46.402007
 30
0.0
 10
821.838632
 20
46.927872
 30
0.0
 10
822.843530
 20
45.099966
 30
0.0
 10
821.378924
 20
43.773520
 30
0.0
 10
820.770840
 20
43.369006
 30
0.0
 10
819.714494
 20
42.833156
 30
0.0
 10
820.870543
 20
40.376429
 30
0.0
 10
821.956761
 20
40.848795
 30
0.0
 10
822.656052
 20
41.059485
 30
0.0
 10
824.611672
 20
41.342475
 30
0.0
 10
825.379548
 20
39.403037
 30
0.0
 10
823.760243
 20
38.270615
 30
0.0
 10
823.106254
 20
37.945506
 30
0.0
 10
821.991080
 20
37.546276
 30
0.0
 10
822.830103
 20
34.964027
 30
0.0
 10
823.966959
 20
35.296529
 30
0.0
 10
824.687142
 20
35.417915
 30
0.0
 10
826.662809
 20
35.453570
 30
0.0
 10
827.181557
 20
33.433183
 30
0.0
 10
825.433090
 20
32.512642
 30
0.0
 10
824.743511
 20
32.272064
 30
0.0
 10
823.587092
 20
32.015751
 30
0.0
 10
824.095856
 20
29.348707
 30
0.0
 10
825.265423
 20
29.536100
 30
0.0
 10
825.995141
 20
29.566265
 30
0.0
 10
827.959699
 20
29.354022
 30
0.0
 10
828.221134
 20
27.284552
 30
0.0
 10
826.371077
 20
26.590412
 30
0.0
 10
825.656784
 20
26.438155
 30
0.0
 10
824.477362
 20
26.328803
 30
0.0
  0
SPLINE
  5
29d
100
AcDbEntity
  8
Layer_1
 62
7
100
AcDbSpline
 70
8
 71
3
 72
8
 73
4
 74
0
 40
0
 40
0
 40
0
 40
0
 40
1
 40
1
 40
1
 40
1
 10
780.545899
 20
22.085976
 30
0.0
 10
780.545899
 20
21.460761
 30
0.0
 10
780.212351
 20
20.883039
 30
0.0
 10
779.670899
 20
20.570432
 30
0.0
  0
SPLINE
  5
29e
100
AcDbEntity
  8
Layer_1
 62
7
100
AcDbSpline
 70
8
 71
3
 72
8
 73
4
 74
0
 40
0
 40
0
 40
0
 40
0
 40
1
 40
1
 40
1
 40
1
 10
779.670899
 20
20.570432
 30
0.0
 10
779.129447
 20
20.257824
 30
0.0
 10
778.462351
 20
20.257824
 30
0.0
 10
777.920899
 20
20.570432
 30
0.0
  0
SPLINE
  5
29f
100
AcDbEntity
  8
Layer_1
 62
7
100
AcDbSpline
 70
8
 71
3
 72
8
 73
4
 74
0
 40
0
 40
0
 40
0
 40
0
 40
1
 40
1
 40
1
 40
1
 10
777.920899
 20
20.570432
 30
0.0
 10
777.379447
 20
20.883039
 30
0.0
 10
777.045899
 20
21.460761
 30
0.0
 10
777.045899
 20
22.085976
 30
0.0
  0
SPLINE
  5
2a0
100
AcDbEntity
  8
Layer_1
 62
7
100
AcDbSpline
 70
8
 71
3
 72
8
 73
4
 74
0
 40
0
 40
0
 40
0
 40
0
 40
1
 40
1
 40
1
 40
1
 10
777.045899
 20
22.085976
 30
0.0
 10
777.045899
 20
22.711191
 30
0.0
 10
777.379447
 20
23.288913
 30
0.0
 10
777.920899
 20
23.601521
 30
0.0
  0
SPLINE
  5
2a1
100
AcDbEntity
  8
Layer_1
 62
7
100
AcDbSpline
 70
8
 71
3
 72
8
 73
4
 74
0
 40
0
 40
0
 40
0
 40
0
 40
1
 40
1
 40
1
 40
1
 10
777.920899
 20
23.601521
 30
0.0
 10
778.462351
 20
23.914128
 30
0.0
 10
779.129447
 20
23.914128
 30
0.0
 10
779.670899
 20
23.601521
 30
0.0
  0
SPLINE
  5
2a2
100
AcDbEntity
  8
Layer_1
 62
7
100
AcDbSpline
 70
8
 71
3
 72
8
 73
4
 74
0
 40
0
 40
0
 40
0
 40
0
 40
1
 40
1
 40
1
 40
1
 10
779.670899
 20
23.601521
 30
0.0
 10
780.212351
 20
23.288913
 30
0.0
 10
780.545899
 20
22.711191
 30
0.0
 10
780.545899
 20
22.085976
 30
0.0
  0
LWPOLYLINE
  5
2a3
100
AcDbEntity
  8
Layer_1
 62
7
100
AcDbPolyline
 90
1
 70
1
 10
780.586496
 20
22.097070
 30
0.0
  0
SPLINE
  5
2a4
100
AcDbEntity
  8
Layer_1
 62
7
100
AcDbSpline
 70
8
 71
3
 72
8
 73
4
 74
0
 40
0
 40
0
 40
0
 40
0
 40
1
 40
1
 40
1
 40
1
 10
780.607167
 20
22.087056
 30
0.0
 10
780.607167
 20
21.461840
 30
0.0
 10
780.273607
 20
20.884119
 30
0.0
 10
779.732164
 20
20.571512
 30
0.0
  0
SPLINE
  5
2a5
100
AcDbEntity
  8
Layer_1
 62
7
100
AcDbSpline
 70
8
 71
3
 72
8
 73
4
 74
0
 40
0
 40
0
 40
0
 40
0
 40
1
 40
1
 40
1
 40
1
 10
779.732164
 20
20.571512
 30
0.0
 10
779.190721
 20
20.258904
 30
0.0
 10
778.523627
 20
20.258904
 30
0.0
 10
777.982157
 20
20.571512
 30
0.0
  0
SPLINE
  5
2a6
100
AcDbEntity
  8
Layer_1
 62
7
100
AcDbSpline
 70
8
 71
3
 72
8
 73
4
 74
0
 40
0
 40
0
 40
0
 40
0
 40
1
 40
1
 40
1
 40
1
 10
777.982157
 20
20.571512
 30
0.0
 10
777.440713
 20
20.884119
 30
0.0
 10
777.107180
 20
21.461840
 30
0.0
 10
777.107180
 20
22.087056
 30
0.0
  0
SPLINE
  5
2a7
100
AcDbEntity
  8
Layer_1
 62
7
100
AcDbSpline
 70
8
 71
3
 72
8
 73
4
 74
0
 40
0
 40
0
 40
0
 40
0
 40
1
 40
1
 40
1
 40
1
 10
777.107180
 20
22.087056
 30
0.0
 10
777.107180
 20
22.712271
 30
0.0
 10
777.440713
 20
23.289992
 30
0.0
 10
777.982157
 20
23.602599
 30
0.0
  0
SPLINE
  5
2a8
100
AcDbEntity
  8
Layer_1
 62
7
100
AcDbSpline
 70
8
 71
3
 72
8
 73
4
 74
0
 40
0
 40
0
 40
0
 40
0
 40
1
 40
1
 40
1
 40
1
 10
777.982157
 20
23.602599
 30
0.0
 10
778.523627
 20
23.915207
 30
0.0
 10
779.190721
 20
23.915207
 30
0.0
 10
779.732164
 20
23.602599
 30
0.0
  0
SPLINE
  5
2a9
100
AcDbEntity
  8
Layer_1
 62
7
100
AcDbSpline
 70
8
 71
3
 72
8
 73
4
 74
0
 40
0
 40
0
 40
0
 40
0
 40
1
 40
1
 40
1
 40
1
 10
779.732164
 20
23.602599
 30
0.0
 10
780.273607
 20
23.289992
 30
0.0
 10
780.607167
 20
22.712271
 30
0.0
 10
780.607167
 20
22.087056
 30
0.0
  0
SPLINE
  5
2aa
100
AcDbEntity
  8
Layer_1
 62
7
100
AcDbSpline
 70
8
 71
3
 72
8
 73
4
 74
0
 40
0
 40
0
 40
0
 40
0
 40
1
 40
1
 40
1
 40
1
 10
782.576038
 20
22.087071
 30
0.0
 10
782.576038
 20
20.758445
 30
0.0
 10
781.867219
 20
19.530747
 30
0.0
 10
780.716599
 20
18.866433
 30
0.0
  0
SPLINE
  5
2ab
100
AcDbEntity
  8
Layer_1
 62
7
100
AcDbSpline
 70
8
 71
3
 72
8
 73
4
 74
0
 40
0
 40
0
 40
0
 40
0
 40
1
 40
1
 40
1
 40
1
 10
780.716599
 20
18.866433
 30
0.0
 10
779.565979
 20
18.202120
 30
0.0
 10
778.148368
 20
18.202120
 30
0.0
 10
776.997722
 20
18.866433
 30
0.0
  0
SPLINE
  5
2ac
100
AcDbEntity
  8
Layer_1
 62
7
100
AcDbSpline
 70
8
 71
3
 72
8
 73
4
 74
0
 40
0
 40
0
 40
0
 40
0
 40
1
 40
1
 40
1
 40
1
 10
776.997722
 20
18.866433
 30
0.0
 10
775.847102
 20
19.530747
 30
0.0
 10
775.138309
 20
20.758445
 30
0.0
 10
775.138309
 20
22.087071
 30
0.0
  0
SPLINE
  5
2ad
100
AcDbEntity
  8
Layer_1
 62
7
100
AcDbSpline
 70
8
 71
3
 72
8
 73
4
 74
0
 40
0
 40
0
 40
0
 40
0
 40
1
 40
1
 40
1
 40
1
 10
775.138309
 20
22.087071
 30
0.0
 10
775.138309
 20
23.415695
 30
0.0
 10
775.847102
 20
24.643396
 30
0.0
 10
776.997722
 20
25.307707
 30
0.0
  0
SPLINE
  5
2ae
100
AcDbEntity
  8
Layer_1
 62
7
100
AcDbSpline
 70
8
 71
3
 72
8
 73
4
 74
0
 40
0
 40
0
 40
0
 40
0
 40
1
 40
1
 40
1
 40
1
 10
776.997722
 20
25.307707
 30
0.0
 10
778.148368
 20
25.972020
 30
0.0
 10
779.565979
 20
25.972020
 30
0.0
 10
780.716599
 20
25.307707
 30
0.0
  0
SPLINE
  5
2af
100
AcDbEntity
  8
Layer_1
 62
7
100
AcDbSpline
 70
8
 71
3
 72
8
 73
4
 74
0
 40
0
 40
0
 40
0
 40
0
 40
1
 40
1
 40
1
 40
1
 10
780.716599
 20
25.307707
 30
0.0
 10
781.867219
 20
24.643396
 30
0.0
 10
782.576038
 20
23.415695
 30
0.0
 10
782.576038
 20
22.087071
 30
0.0
  0
SPLINE
  5
2b0
100
AcDbEntity
  8
Layer_1
 62
7
100
AcDbSpline
 70
8
 71
3
 72
8
 73
4
 74
0
 40
0
 40
0
 40
0
 40
0
 40
1
 40
1
 40
1
 40
1
 10
830.149912
 20
123.886004
 30
0.0
 10
830.149912
 20
123.254908
 30
0.0
 10
829.813226
 20
122.671750
 30
0.0
 10
829.266680
 20
122.356202
 30
0.0
  0
SPLINE
  5
2b1
100
AcDbEntity
  8
Layer_1
 62
7
100
AcDbSpline
 70
8
 71
3
 72
8
 73
4
 74
0
 40
0
 40
0
 40
0
 40
0
 40
1
 40
1
 40
1
 40
1
 10
829.266680
 20
122.356202
 30
0.0
 10
828.720134
 20
122.040654
 30
0.0
 10
828.046762
 20
122.040654
 30
0.0
 10
827.500216
 20
122.356202
 30
0.0
  0
SPLINE
  5
2b2
100
AcDbEntity
  8
Layer_1
 62
7
100
AcDbSpline
 70
8
 71
3
 72
8
 73
4
 74
0
 40
0
 40
0
 40
0
 40
0
 40
1
 40
1
 40
1
 40
1
 10
827.500216
 20
122.356202
 30
0.0
 10
826.953670
 20
122.671750
 30
0.0
 10
826.616984
 20
123.254908
 30
0.0
 10
826.616984
 20
123.886004
 30
0.0
  0
SPLINE
  5
2b3
100
AcDbEntity
  8
Layer_1
 62
7
100
AcDbSpline
 70
8
 71
3
 72
8
 73
4
 74
0
 40
0
 40
0
 40
0
 40
0
 40
1
 40
1
 40
1
 40
1
 10
826.616984
 20
123.886004
 30
0.0
 10
826.616984
 20
124.517101
 30
0.0
 10
826.953670
 20
125.100259
 30
0.0
 10
827.500216
 20
125.415807
 30
0.0
  0
SPLINE
  5
2b4
100
AcDbEntity
  8
Layer_1
 62
7
100
AcDbSpline
 70
8
 71
3
 72
8
 73
4
 74
0
 40
0
 40
0
 40
0
 40
0
 40
1
 40
1
 40
1
 40
1
 10
827.500216
 20
125.415807
 30
0.0
 10
828.046762
 20
125.731355
 30
0.0
 10
828.720134
 20
125.731355
 30
0.0
 10
829.266680
 20
125.415807
 30
0.0
  0
SPLINE
  5
2b5
100
AcDbEntity
  8
Layer_1
 62
7
100
AcDbSpline
 70
8
 71
3
 72
8
 73
4
 74
0
 40
0
 40
0
 40
0
 40
0
 40
1
 40
1
 40
1
 40
1
 10
829.266680
 20
125.415807
 30
0.0
 10
829.813226
 20
125.100259
 30
0.0
 10
830.149912
 20
124.517101
 30
0.0
 10
830.149912
 20
123.886004
 30
0.0
  0
LWPOLYLINE
  5
2b6
100
AcDbEntity
  8
Layer_1
 62
7
100
AcDbPolyline
 90
1
 70
1
 10
780.545899
 20
22.085976
 30
0.0
  0
SPLINE
  5
2b7
100
AcDbEntity
  8
Layer_1
 62
7
100
AcDbSpline
 70
8
 71
3
 72
8
 73
4
 74
0
 40
0
 40
0
 40
0
 40
0
 40
1
 40
1
 40
1
 40
1
 10
830.144644
 20
132.521774
 30
0.0
 10
830.144644
 20
131.890677
 30
0.0
 10
829.807958
 20
131.307519
 30
0.0
 10
829.261412
 20
130.991971
 30
0.0
  0
SPLINE
  5
2b8
100
AcDbEntity
  8
Layer_1
 62
7
100
AcDbSpline
 70
8
 71
3
 72
8
 73
4
 74
0
 40
0
 40
0
 40
0
 40
0
 40
1
 40
1
 40
1
 40
1
 10
829.261412
 20
130.991971
 30
0.0
 10
828.714866
 20
130.676423
 30
0.0
 10
828.041494
 20
130.676423
 30
0.0
 10
827.494948
 20
130.991971
 30
0.0
  0
SPLINE
  5
2b9
100
AcDbEntity
  8
Layer_1
 62
7
100
AcDbSpline
 70
8
 71
3
 72
8
 73
4
 74
0
 40
0
 40
0
 40
0
 40
0
 40
1
 40
1
 40
1
 40
1
 10
827.494948
 20
130.991971
 30
0.0
 10
826.948402
 20
131.307519
 30
0.0
 10
826.611716
 20
131.890677
 30
0.0
 10
826.611716
 20
132.521774
 30
0.0
  0
SPLINE
  5
2ba
100
AcDbEntity
  8
Layer_1
 62
7
100
AcDbSpline
 70
8
 71
3
 72
8
 73
4
 74
0
 40
0
 40
0
 40
0
 40
0
 40
1
 40
1
 40
1
 40
1
 10
826.611716
 20
132.521774
 30
0.0
 10
826.611716
 20
133.152870
 30
0.0
 10
826.948402
 20
133.736028
 30
0.0
 10
827.494948
 20
134.051576
 30
0.0
  0
SPLINE
  5
2bb
100
AcDbEntity
  8
Layer_1
 62
7
100
AcDbSpline
 70
8
 71
3
 72
8
 73
4
 74
0
 40
0
 40
0
 40
0
 40
0
 40
1
 40
1
 40
1
 40
1
 10
827.494948
 20
134.051576
 30
0.0
 10
828.041494
 20
134.367124
 30
0.0
 10
828.714866
 20
134.367124
 30
0.0
 10
829.261412
 20
134.051576
 30
0.0
  0
SPLINE
  5
2bc
100
AcDbEntity
  8
Layer_1
 62
7
100
AcDbSpline
 70
8
 71
3
 72
8
 73
4
 74
0
 40
0
 40
0
 40
0
 40
0
 40
1
 40
1
 40
1
 40
1
 10
829.261412
 20
134.051576
 30
0.0
 10
829.807958
 20
133.736028
 30
0.0
 10
830.144644
 20
133.152870
 30
0.0
 10
830.144644
 20
132.521774
 30
0.0
  0
LWPOLYLINE
  5
2bd
100
AcDbEntity
  8
Layer_1
 62
7
100
AcDbPolyline
 90
1
 70
1
 10
830.149912
 20
123.886004
 30
0.0
  0
SPLINE
  5
2be
100
AcDbEntity
  8
Layer_1
 62
7
100
AcDbSpline
 70
8
 71
3
 72
8
 73
4
 74
0
 40
0
 40
0
 40
0
 40
0
 40
1
 40
1
 40
1
 40
1
 10
880.613983
 20
132.526286
 30
0.0
 10
880.613983
 20
131.895189
 30
0.0
 10
880.277297
 20
131.312032
 30
0.0
 10
879.730752
 20
130.996484
 30
0.0
  0
SPLINE
  5
2bf
100
AcDbEntity
  8
Layer_1
 62
7
100
AcDbSpline
 70
8
 71
3
 72
8
 73
4
 74
0
 40
0
 40
0
 40
0
 40
0
 40
1
 40
1
 40
1
 40
1
 10
879.730752
 20
130.996484
 30
0.0
 10
879.184206
 20
130.680935
 30
0.0
 10
878.510834
 20
130.680935
 30
0.0
 10
877.964288
 20
130.996484
 30
0.0
  0
SPLINE
  5
2c0
100
AcDbEntity
  8
Layer_1
 62
7
100
AcDbSpline
 70
8
 71
3
 72
8
 73
4
 74
0
 40
0
 40
0
 40
0
 40
0
 40
1
 40
1
 40
1
 40
1
 10
877.964288
 20
130.996484
 30
0.0
 10
877.417742
 20
131.312032
 30
0.0
 10
877.081056
 20
131.895189
 30
0.0
 10
877.081056
 20
132.526286
 30
0.0
  0
SPLINE
  5
2c1
100
AcDbEntity
  8
Layer_1
 62
7
100
AcDbSpline
 70
8
 71
3
 72
8
 73
4
 74
0
 40
0
 40
0
 40
0
 40
0
 40
1
 40
1
 40
1
 40
1
 10
877.081056
 20
132.526286
 30
0.0
 10
877.081056
 20
133.157383
 30
0.0
 10
877.417742
 20
133.740540
 30
0.0
 10
877.964288
 20
134.056088
 30
0.0
  0
SPLINE
  5
2c2
100
AcDbEntity
  8
Layer_1
 62
7
100
AcDbSpline
 70
8
 71
3
 72
8
 73
4
 74
0
 40
0
 40
0
 40
0
 40
0
 40
1
 40
1
 40
1
 40
1
 10
877.964288
 20
134.056088
 30
0.0
 10
878.510834
 20
134.371637
 30
0.0
 10
879.184206
 20
134.371637
 30
0.0
 10
879.730752
 20
134.056088
 30
0.0
  0
SPLINE
  5
2c3
100
AcDbEntity
  8
Layer_1
 62
7
100
AcDbSpline
 70
8
 71
3
 72
8
 73
4
 74
0
 40
0
 40
0
 40
0
 40
0
 40
1
 40
1
 40
1
 40
1
 10
879.730752
 20
134.056088
 30
0.0
 10
880.277297
 20
133.740540
 30
0.0
 10
880.613983
 20
133.157383
 30
0.0
 10
880.613983
 20
132.526286
 30
0.0
  0
LWPOLYLINE
  5
2c4
100
AcDbEntity
  8
Layer_1
 62
7
100
AcDbPolyline
 90
1
 70
1
 10
830.144644
 20
132.521774
 30
0.0
  0
SPLINE
  5
2c5
100
AcDbEntity
  8
Layer_1
 62
7
100
AcDbSpline
 70
8
 71
3
 72
8
 73
4
 74
0
 40
0
 40
0
 40
0
 40
0
 40
1
 40
1
 40
1
 40
1
 10
880.618193
 20
123.895531
 30
0.0
 10
880.618193
 20
123.264434
 30
0.0
 10
880.281507
 20
122.681277
 30
0.0
 10
879.734961
 20
122.365729
 30
0.0
  0
SPLINE
  5
2c6
100
AcDbEntity
  8
Layer_1
 62
7
100
AcDbSpline
 70
8
 71
3
 72
8
 73
4
 74
0
 40
0
 40
0
 40
0
 40
0
 40
1
 40
1
 40
1
 40
1
 10
879.734961
 20
122.365729
 30
0.0
 10
879.188415
 20
122.050180
 30
0.0
 10
878.515043
 20
122.050180
 30
0.0
 10
877.968497
 20
122.365729
 30
0.0
  0
SPLINE
  5
2c7
100
AcDbEntity
  8
Layer_1
 62
7
100
AcDbSpline
 70
8
 71
3
 72
8
 73
4
 74
0
 40
0
 40
0
 40
0
 40
0
 40
1
 40
1
 40
1
 40
1
 10
877.968497
 20
122.365729
 30
0.0
 10
877.421952
 20
122.681277
 30
0.0
 10
877.085266
 20
123.264434
 30
0.0
 10
877.085266
 20
123.895531
 30
0.0
  0
SPLINE
  5
2c8
100
AcDbEntity
  8
Layer_1
 62
7
100
AcDbSpline
 70
8
 71
3
 72
8
 73
4
 74
0
 40
0
 40
0
 40
0
 40
0
 40
1
 40
1
 40
1
 40
1
 10
877.085266
 20
123.895531
 30
0.0
 10
877.085266
 20
124.526628
 30
0.0
 10
877.421952
 20
125.109785
 30
0.0
 10
877.968497
 20
125.425334
 30
0.0
  0
SPLINE
  5
2c9
100
AcDbEntity
  8
Layer_1
 62
7
100
AcDbSpline
 70
8
 71
3
 72
8
 73
4
 74
0
 40
0
 40
0
 40
0
 40
0
 40
1
 40
1
 40
1
 40
1
 10
877.968497
 20
125.425334
 30
0.0
 10
878.515043
 20
125.740882
 30
0.0
 10
879.188415
 20
125.740882
 30
0.0
 10
879.734961
 20
125.425334
 30
0.0
  0
SPLINE
  5
2ca
100
AcDbEntity
  8
Layer_1
 62
7
100
AcDbSpline
 70
8
 71
3
 72
8
 73
4
 74
0
 40
0
 40
0
 40
0
 40
0
 40
1
 40
1
 40
1
 40
1
 10
879.734961
 20
125.425334
 30
0.0
 10
880.281507
 20
125.109785
 30
0.0
 10
880.618193
 20
124.526628
 30
0.0
 10
880.618193
 20
123.895531
 30
0.0
  0
LWPOLYLINE
  5
2cb
100
AcDbEntity
  8
Layer_1
 62
7
100
AcDbPolyline
 90
1
 70
1
 10
880.613983
 20
132.526286
 30
0.0
  0
SPLINE
  5
2cc
100
AcDbEntity
  8
Layer_1
 62
7
100
AcDbSpline
 70
8
 71
3
 72
8
 73
4
 74
0
 40
0
 40
0
 40
0
 40
0
 40
1
 40
1
 40
1
 40
1
 10
884.643436
 20
127.932025
 30
0.0
 10
884.643436
 20
116.754466
 30
0.0
 10
878.680272
 20
106.425975
 30
0.0
 10
869.000209
 20
100.837195
 30
0.0
  0
SPLINE
  5
2cd
100
AcDbEntity
  8
Layer_1
 62
7
100
AcDbSpline
 70
8
 71
3
 72
8
 73
4
 74
0
 40
0
 40
0
 40
0
 40
0
 40
1
 40
1
 40
1
 40
1
 10
869.000209
 20
100.837195
 30
0.0
 10
859.320147
 20
95.248415
 30
0.0
 10
847.393818
 20
95.248415
 30
0.0
 10
837.713756
 20
100.837195
 30
0.0
  0
SPLINE
  5
2ce
100
AcDbEntity
  8
Layer_1
 62
7
100
AcDbSpline
 70
8
 71
3
 72
8
 73
4
 74
0
 40
0
 40
0
 40
0
 40
0
 40
1
 40
1
 40
1
 40
1
 10
837.713756
 20
100.837195
 30
0.0
 10
828.033693
 20
106.425975
 30
0.0
 10
822.070529
 20
116.754466
 30
0.0
 10
822.070529
 20
127.932025
 30
0.0
  0
SPLINE
  5
2cf
100
AcDbEntity
  8
Layer_1
 62
7
100
AcDbSpline
 70
8
 71
3
 72
8
 73
4
 74
0
 40
0
 40
0
 40
0
 40
0
 40
1
 40
1
 40
1
 40
1
 10
822.070529
 20
127.932025
 30
0.0
 10
822.070529
 20
139.109585
 30
0.0
 10
828.033693
 20
149.438076
 30
0.0
 10
837.713756
 20
155.026855
 30
0.0
  0
SPLINE
  5
2d0
100
AcDbEntity
  8
Layer_1
 62
7
100
AcDbSpline
 70
8
 71
3
 72
8
 73
4
 74
0
 40
0
 40
0
 40
0
 40
0
 40
1
 40
1
 40
1
 40
1
 10
837.713756
 20
155.026855
 30
0.0
 10
847.393818
 20
160.615635
 30
0.0
 10
859.320147
 20
160.615635
 30
0.0
 10
869.000209
 20
155.026855
 30
0.0
  0
SPLINE
  5
2d1
100
AcDbEntity
  8
Layer_1
 62
7
100
AcDbSpline
 70
8
 71
3
 72
8
 73
4
 74
0
 40
0
 40
0
 40
0
 40
0
 40
1
 40
1
 40
1
 40
1
 10
869.000209
 20
155.026855
 30
0.0
 10
878.680272
 20
149.438076
 30
0.0
 10
884.643436
 20
139.109585
 30
0.0
 10
884.643436
 20
127.932025
 30
0.0
  0
LWPOLYLINE
  5
2d2
100
AcDbEntity
  8
Layer_1
 62
7
100
AcDbPolyline
 90
1
 70
1
 10
880.618193
 20
123.895531
 30
0.0
  0
SPLINE
  5
2d3
100
AcDbEntity
  8
Layer_1
 62
7
100
AcDbSpline
 70
8
 71
3
 72
8
 73
4
 74
0
 40
0
 40
0
 40
0
 40
0
 40
1
 40
1
 40
1
 40
1
 10
855.398686
 20
128.206600
 30
0.0
 10
855.398686
 20
127.575504
 30
0.0
 10
855.062000
 20
126.992346
 30
0.0
 10
854.515455
 20
126.676798
 30
0.0
  0
SPLINE
  5
2d4
100
AcDbEntity
  8
Layer_1
 62
7
100
AcDbSpline
 70
8
 71
3
 72
8
 73
4
 74
0
 40
0
 40
0
 40
0
 40
0
 40
1
 40
1
 40
1
 40
1
 10
854.515455
 20
126.676798
 30
0.0
 10
853.968909
 20
126.361250
 30
0.0
 10
853.295537
 20
126.361250
 30
0.0
 10
852.748991
 20
126.676798
 30
0.0
  0
SPLINE
  5
2d5
100
AcDbEntity
  8
Layer_1
 62
7
100
AcDbSpline
 70
8
 71
3
 72
8
 73
4
 74
0
 40
0
 40
0
 40
0
 40
0
 40
1
 40
1
 40
1
 40
1
 10
852.748991
 20
126.676798
 30
0.0
 10
852.202445
 20
126.992346
 30
0.0
 10
851.865759
 20
127.575504
 30
0.0
 10
851.865759
 20
128.206600
 30
0.0
  0
SPLINE
  5
2d6
100
AcDbEntity
  8
Layer_1
 62
7
100
AcDbSpline
 70
8
 71
3
 72
8
 73
4
 74
0
 40
0
 40
0
 40
0
 40
0
 40
1
 40
1
 40
1
 40
1
 10
851.865759
 20
128.206600
 30
0.0
 10
851.865759
 20
128.837697
 30
0.0
 10
852.202445
 20
129.420854
 30
0.0
 10
852.748991
 20
129.736403
 30
0.0
  0
SPLINE
  5
2d7
100
AcDbEntity
  8
Layer_1
 62
7
100
AcDbSpline
 70
8
 71
3
 72
8
 73
4
 74
0
 40
0
 40
0
 40
0
 40
0
 40
1
 40
1
 40
1
 40
1
 10
852.748991
 20
129.736403
 30
0.0
 10
853.295537
 20
130.051951
 30
0.0
 10
853.968909
 20
130.051951
 30
0.0
 10
854.515455
 20
129.736403
 30
0.0
  0
SPLINE
  5
2d8
100
AcDbEntity
  8
Layer_1
 62
7
100
AcDbSpline
 70
8
 71
3
 72
8
 73
4
 74
0
 40
0
 40
0
 40
0
 40
0
 40
1
 40
1
 40
1
 40
1
 10
854.515455
 20
129.736403
 30
0.0
 10
855.062000
 20
129.420854
 30
0.0
 10
855.398686
 20
128.837697
 30
0.0
 10
855.398686
 20
128.206600
 30
0.0
  0
LWPOLYLINE
  5
2d9
100
AcDbEntity
  8
Layer_1
 62
7
100
AcDbPolyline
 90
1
 70
1
 10
884.643436
 20
127.932025
 30
0.0
  0
SPLINE
  5
2da
100
AcDbEntity
  8
Layer_1
 62
7
100
AcDbSpline
 70
8
 71
3
 72
8
 73
4
 74
0
 40
0
 40
0
 40
0
 40
0
 40
1
 40
1
 40
1
 40
1
 10
810.076602
 20
115.620800
 30
0.0
 10
810.076602
 20
114.989703
 30
0.0
 10
809.739916
 20
114.406546
 30
0.0
 10
809.193370
 20
114.090997
 30
0.0
  0
SPLINE
  5
2db
100
AcDbEntity
  8
Layer_1
 62
7
100
AcDbSpline
 70
8
 71
3
 72
8
 73
4
 74
0
 40
0
 40
0
 40
0
 40
0
 40
1
 40
1
 40
1
 40
1
 10
809.193370
 20
114.090997
 30
0.0
 10
808.646825
 20
113.775449
 30
0.0
 10
807.973452
 20
113.775449
 30
0.0
 10
807.426907
 20
114.090997
 30
0.0
  0
SPLINE
  5
2dc
100
AcDbEntity
  8
Layer_1
 62
7
100
AcDbSpline
 70
8
 71
3
 72
8
 73
4
 74
0
 40
0
 40
0
 40
0
 40
0
 40
1
 40
1
 40
1
 40
1
 10
807.426907
 20
114.090997
 30
0.0
 10
806.880361
 20
114.406546
 30
0.0
 10
806.543675
 20
114.989703
 30
0.0
 10
806.543675
 20
115.620800
 30
0.0
  0
SPLINE
  5
2dd
100
AcDbEntity
  8
Layer_1
 62
7
100
AcDbSpline
 70
8
 71
3
 72
8
 73
4
 74
0
 40
0
 40
0
 40
0
 40
0
 40
1
 40
1
 40
1
 40
1
 10
806.543675
 20
115.620800
 30
0.0
 10
806.543675
 20
116.251896
 30
0.0
 10
806.880361
 20
116.835054
 30
0.0
 10
807.426907
 20
117.150602
 30
0.0
  0
SPLINE
  5
2de
100
AcDbEntity
  8
Layer_1
 62
7
100
AcDbSpline
 70
8
 71
3
 72
8
 73
4
 74
0
 40
0
 40
0
 40
0
 40
0
 40
1
 40
1
 40
1
 40
1
 10
807.426907
 20
117.150602
 30
0.0
 10
807.973452
 20
117.466151
 30
0.0
 10
808.646825
 20
117.466151
 30
0.0
 10
809.193370
 20
117.150602
 30
0.0
  0
SPLINE
  5
2df
100
AcDbEntity
  8
Layer_1
 62
7
100
AcDbSpline
 70
8
 71
3
 72
8
 73
4
 74
0
 40
0
 40
0
 40
0
 40
0
 40
1
 40
1
 40
1
 40
1
 10
809.193370
 20
117.150602
 30
0.0
 10
809.739916
 20
116.835054
 30
0.0
 10
810.076602
 20
116.251896
 30
0.0
 10
810.076602
 20
115.620800
 30
0.0
  0
LWPOLYLINE
  5
2e0
100
AcDbEntity
  8
Layer_1
 62
7
100
AcDbPolyline
 90
1
 70
1
 10
855.398686
 20
128.206600
 30
0.0
  0
SPLINE
  5
2e1
100
AcDbEntity
  8
Layer_1
 62
7
100
AcDbSpline
 70
8
 71
3
 72
8
 73
4
 74
0
 40
0
 40
0
 40
0
 40
0
 40
1
 40
1
 40
1
 40
1
 10
884.643436
 20
127.932025
 30
0.0
 10
884.643436
 20
116.754466
 30
0.0
 10
878.680272
 20
106.425975
 30
0.0
 10
869.000209
 20
100.837195
 30
0.0
  0
SPLINE
  5
2e2
100
AcDbEntity
  8
Layer_1
 62
7
100
AcDbSpline
 70
8
 71
3
 72
8
 73
4
 74
0
 40
0
 40
0
 40
0
 40
0
 40
1
 40
1
 40
1
 40
1
 10
869.000209
 20
100.837195
 30
0.0
 10
859.320147
 20
95.248415
 30
0.0
 10
847.393818
 20
95.248415
 30
0.0
 10
837.713756
 20
100.837195
 30
0.0
  0
SPLINE
  5
2e3
100
AcDbEntity
  8
Layer_1
 62
7
100
AcDbSpline
 70
8
 71
3
 72
8
 73
4
 74
0
 40
0
 40
0
 40
0
 40
0
 40
1
 40
1
 40
1
 40
1
 10
837.713756
 20
100.837195
 30
0.0
 10
828.033693
 20
106.425975
 30
0.0
 10
822.070529
 20
116.754466
 30
0.0
 10
822.070529
 20
127.932025
 30
0.0
  0
SPLINE
  5
2e4
100
AcDbEntity
  8
Layer_1
 62
7
100
AcDbSpline
 70
8
 71
3
 72
8
 73
4
 74
0
 40
0
 40
0
 40
0
 40
0
 40
1
 40
1
 40
1
 40
1
 10
822.070529
 20
127.932025
 30
0.0
 10
822.070529
 20
139.109585
 30
0.0
 10
828.033693
 20
149.438076
 30
0.0
 10
837.713756
 20
155.026855
 30
0.0
  0
SPLINE
  5
2e5
100
AcDbEntity
  8
Layer_1
 62
7
100
AcDbSpline
 70
8
 71
3
 72
8
 73
4
 74
0
 40
0
 40
0
 40
0
 40
0
 40
1
 40
1
 40
1
 40
1
 10
837.713756
 20
155.026855
 30
0.0
 10
847.393818
 20
160.615635
 30
0.0
 10
859.320147
 20
160.615635
 30
0.0
 10
869.000209
 20
155.026855
 30
0.0
  0
SPLINE
  5
2e6
100
AcDbEntity
  8
Layer_1
 62
7
100
AcDbSpline
 70
8
 71
3
 72
8
 73
4
 74
0
 40
0
 40
0
 40
0
 40
0
 40
1
 40
1
 40
1
 40
1
 10
869.000209
 20
155.026855
 30
0.0
 10
878.680272
 20
149.438076
 30
0.0
 10
884.643436
 20
139.109585
 30
0.0
 10
884.643436
 20
127.932025
 30
0.0
  0
LWPOLYLINE
  5
2e7
100
AcDbEntity
  8
Layer_1
 62
7
100
AcDbPolyline
 90
1
 70
1
 10
810.076602
 20
115.620800
 30
0.0
  0
SPLINE
  5
2e8
100
AcDbEntity
  8
Layer_1
 62
7
100
AcDbSpline
 70
8
 71
3
 72
8
 73
4
 74
0
 40
0
 40
0
 40
0
 40
0
 40
1
 40
1
 40
1
 40
1
 10
738.294206
 20
32.694250
 30
0.0
 10
738.294206
 20
32.063154
 30
0.0
 10
737.957520
 20
31.479996
 30
0.0
 10
737.410974
 20
31.164448
 30
0.0
  0
SPLINE
  5
2e9
100
AcDbEntity
  8
Layer_1
 62
7
100
AcDbSpline
 70
8
 71
3
 72
8
 73
4
 74
0
 40
0
 40
0
 40
0
 40
0
 40
1
 40
1
 40
1
 40
1
 10
737.410974
 20
31.164448
 30
0.0
 10
736.864429
 20
30.848900
 30
0.0
 10
736.191056
 20
30.848900
 30
0.0
 10
735.644511
 20
31.164448
 30
0.0
  0
SPLINE
  5
2ea
100
AcDbEntity
  8
Layer_1
 62
7
100
AcDbSpline
 70
8
 71
3
 72
8
 73
4
 74
0
 40
0
 40
0
 40
0
 40
0
 40
1
 40
1
 40
1
 40
1
 10
735.644511
 20
31.164448
 30
0.0
 10
735.097965
 20
31.479996
 30
0.0
 10
734.761279
 20
32.063154
 30
0.0
 10
734.761279
 20
32.694250
 30
0.0
  0
SPLINE
  5
2eb
100
AcDbEntity
  8
Layer_1
 62
7
100
AcDbSpline
 70
8
 71
3
 72
8
 73
4
 74
0
 40
0
 40
0
 40
0
 40
0
 40
1
 40
1
 40
1
 40
1
 10
734.761279
 20
32.694250
 30
0.0
 10
734.761279
 20
33.325347
 30
0.0
 10
735.097965
 20
33.908504
 30
0.0
 10
735.644511
 20
34.224053
 30
0.0
  0
SPLINE
  5
2ec
100
AcDbEntity
  8
Layer_1
 62
7
100
AcDbSpline
 70
8
 71
3
 72
8
 73
4
 74
0
 40
0
 40
0
 40
0
 40
0
 40
1
 40
1
 40
1
 40
1
 10
735.644511
 20
34.224053
 30
0.0
 10
736.191056
 20
34.539601
 30
0.0
 10
736.864429
 20
34.539601
 30
0.0
 10
737.410974
 20
34.224053
 30
0.0
  0
SPLINE
  5
2ed
100
AcDbEntity
  8
Layer_1
 62
7
100
AcDbSpline
 70
8
 71
3
 72
8
 73
4
 74
0
 40
0
 40
0
 40
0
 40
0
 40
1
 40
1
 40
1
 40
1
 10
737.410974
 20
34.224053
 30
0.0
 10
737.957520
 20
33.908504
 30
0.0
 10
738.294206
 20
33.325347
 30
0.0
 10
738.294206
 20
32.694250
 30
0.0
  0
LWPOLYLINE
  5
2ee
100
AcDbEntity
  8
Layer_1
 62
7
100
AcDbPolyline
 90
1
 70
1
 10
884.643436
 20
127.932025
 30
0.0
  0
SPLINE
  5
2ef
100
AcDbEntity
  8
Layer_1
 62
7
100
AcDbSpline
 70
8
 71
3
 72
8
 73
4
 74
0
 40
0
 40
0
 40
0
 40
0
 40
1
 40
1
 40
1
 40
1
 10
757.483610
 20
58.558232
 30
0.0
 10
757.483610
 20
57.927135
 30
0.0
 10
757.146924
 20
57.343978
 30
0.0
 10
756.600378
 20
57.028429
 30
0.0
  0
SPLINE
  5
2f0
100
AcDbEntity
  8
Layer_1
 62
7
100
AcDbSpline
 70
8
 71
3
 72
8
 73
4
 74
0
 40
0
 40
0
 40
0
 40
0
 40
1
 40
1
 40
1
 40
1
 10
756.600378
 20
57.028429
 30
0.0
 10
756.053832
 20
56.712881
 30
0.0
 10
755.380460
 20
56.712881
 30
0.0
 10
754.833914
 20
57.028429
 30
0.0
  0
SPLINE
  5
2f1
100
AcDbEntity
  8
Layer_1
 62
7
100
AcDbSpline
 70
8
 71
3
 72
8
 73
4
 74
0
 40
0
 40
0
 40
0
 40
0
 40
1
 40
1
 40
1
 40
1
 10
754.833914
 20
57.028429
 30
0.0
 10
754.287369
 20
57.343978
 30
0.0
 10
753.950683
 20
57.927135
 30
0.0
 10
753.950683
 20
58.558232
 30
0.0
  0
SPLINE
  5
2f2
100
AcDbEntity
  8
Layer_1
 62
7
100
AcDbSpline
 70
8
 71
3
 72
8
 73
4
 74
0
 40
0
 40
0
 40
0
 40
0
 40
1
 40
1
 40
1
 40
1
 10
753.950683
 20
58.558232
 30
0.0
 10
753.950683
 20
59.189328
 30
0.0
 10
754.287369
 20
59.772486
 30
0.0
 10
754.833914
 20
60.088034
 30
0.0
  0
SPLINE
  5
2f3
100
AcDbEntity
  8
Layer_1
 62
7
100
AcDbSpline
 70
8
 71
3
 72
8
 73
4
 74
0
 40
0
 40
0
 40
0
 40
0
 40
1
 40
1
 40
1
 40
1
 10
754.833914
 20
60.088034
 30
0.0
 10
755.380460
 20
60.403582
 30
0.0
 10
756.053832
 20
60.403582
 30
0.0
 10
756.600378
 20
60.088034
 30
0.0
  0
SPLINE
  5
2f4
100
AcDbEntity
  8
Layer_1
 62
7
100
AcDbSpline
 70
8
 71
3
 72
8
 73
4
 74
0
 40
0
 40
0
 40
0
 40
0
 40
1
 40
1
 40
1
 40
1
 10
756.600378
 20
60.088034
 30
0.0
 10
757.146924
 20
59.772486
 30
0.0
 10
757.483610
 20
59.189328
 30
0.0
 10
757.483610
 20
58.558232
 30
0.0
  0
LWPOLYLINE
  5
2f5
100
AcDbEntity
  8
Layer_1
 62
7
100
AcDbPolyline
 90
1
 70
1
 10
738.294206
 20
32.694250
 30
0.0
  0
SPLINE
  5
2f6
100
AcDbEntity
  8
Layer_1
 62
7
100
AcDbSpline
 70
8
 71
3
 72
8
 73
4
 74
0
 40
0
 40
0
 40
0
 40
0
 40
1
 40
1
 40
1
 40
1
 10
793.836209
 20
63.087409
 30
0.0
 10
793.836209
 20
62.456312
 30
0.0
 10
793.499523
 20
61.873155
 30
0.0
 10
792.952977
 20
61.557606
 30
0.0
  0
SPLINE
  5
2f7
100
AcDbEntity
  8
Layer_1
 62
7
100
AcDbSpline
 70
8
 71
3
 72
8
 73
4
 74
0
 40
0
 40
0
 40
0
 40
0
 40
1
 40
1
 40
1
 40
1
 10
792.952977
 20
61.557606
 30
0.0
 10
792.406432
 20
61.242058
 30
0.0
 10
791.733059
 20
61.242058
 30
0.0
 10
791.186514
 20
61.557606
 30
0.0
  0
SPLINE
  5
2f8
100
AcDbEntity
  8
Layer_1
 62
7
100
AcDbSpline
 70
8
 71
3
 72
8
 73
4
 74
0
 40
0
 40
0
 40
0
 40
0
 40
1
 40
1
 40
1
 40
1
 10
791.186514
 20
61.557606
 30
0.0
 10
790.639968
 20
61.873155
 30
0.0
 10
790.303282
 20
62.456312
 30
0.0
 10
790.303282
 20
63.087409
 30
0.0
  0
SPLINE
  5
2f9
100
AcDbEntity
  8
Layer_1
 62
7
100
AcDbSpline
 70
8
 71
3
 72
8
 73
4
 74
0
 40
0
 40
0
 40
0
 40
0
 40
1
 40
1
 40
1
 40
1
 10
790.303282
 20
63.087409
 30
0.0
 10
790.303282
 20
63.718505
 30
0.0
 10
790.639968
 20
64.301663
 30
0.0
 10
791.186514
 20
64.617211
 30
0.0
  0
SPLINE
  5
2fa
100
AcDbEntity
  8
Layer_1
 62
7
100
AcDbSpline
 70
8
 71
3
 72
8
 73
4
 74
0
 40
0
 40
0
 40
0
 40
0
 40
1
 40
1
 40
1
 40
1
 10
791.186514
 20
64.617211
 30
0.0
 10
791.733059
 20
64.932760
 30
0.0
 10
792.406432
 20
64.932760
 30
0.0
 10
792.952977
 20
64.617211
 30
0.0
  0
SPLINE
  5
2fb
100
AcDbEntity
  8
Layer_1
 62
7
100
AcDbSpline
 70
8
 71
3
 72
8
 73
4
 74
0
 40
0
 40
0
 40
0
 40
0
 40
1
 40
1
 40
1
 40
1
 10
792.952977
 20
64.617211
 30
0.0
 10
793.499523
 20
64.301663
 30
0.0
 10
793.836209
 20
63.718505
 30
0.0
 10
793.836209
 20
63.087409
 30
0.0
  0
LWPOLYLINE
  5
2fc
100
AcDbEntity
  8
Layer_1
 62
7
100
AcDbPolyline
 90
1
 70
1
 10
757.483610
 20
58.558232
 30
0.0
  0
SPLINE
  5
2fd
100
AcDbEntity
  8
Layer_1
 62
7
100
AcDbSpline
 70
8
 71
3
 72
8
 73
4
 74
0
 40
0
 40
0
 40
0
 40
0
 40
1
 40
1
 40
1
 40
1
 10
820.534511
 20
38.057751
 30
0.0
 10
820.534511
 20
37.426655
 30
0.0
 10
820.197825
 20
36.843497
 30
0.0
 10
819.651280
 20
36.527949
 30
0.0
  0
SPLINE
  5
2fe
100
AcDbEntity
  8
Layer_1
 62
7
100
AcDbSpline
 70
8
 71
3
 72
8
 73
4
 74
0
 40
0
 40
0
 40
0
 40
0
 40
1
 40
1
 40
1
 40
1
 10
819.651280
 20
36.527949
 30
0.0
 10
819.104734
 20
36.212401
 30
0.0
 10
818.431362
 20
36.212401
 30
0.0
 10
817.884816
 20
36.527949
 30
0.0
  0
SPLINE
  5
2ff
100
AcDbEntity
  8
Layer_1
 62
7
100
AcDbSpline
 70
8
 71
3
 72
8
 73
4
 74
0
 40
0
 40
0
 40
0
 40
0
 40
1
 40
1
 40
1
 40
1
 10
817.884816
 20
36.527949
 30
0.0
 10
817.338270
 20
36.843497
 30
0.0
 10
817.001584
 20
37.426655
 30
0.0
 10
817.001584
 20
38.057751
 30
0.0
  0
SPLINE
  5
300
100
AcDbEntity
  8
Layer_1
 62
7
100
AcDbSpline
 70
8
 71
3
 72
8
 73
4
 74
0
 40
0
 40
0
 40
0
 40
0
 40
1
 40
1
 40
1
 40
1
 10
817.001584
 20
38.057751
 30
0.0
 10
817.001584
 20
38.688848
 30
0.0
 10
817.338270
 20
39.272005
 30
0.0
 10
817.884816
 20
39.587554
 30
0.0
  0
SPLINE
  5
301
100
AcDbEntity
  8
Layer_1
 62
7
100
AcDbSpline
 70
8
 71
3
 72
8
 73
4
 74
0
 40
0
 40
0
 40
0
 40
0
 40
1
 40
1
 40
1
 40
1
 10
817.884816
 20
39.587554
 30
0.0
 10
818.431362
 20
39.903102
 30
0.0
 10
819.104734
 20
39.903102
 30
0.0
 10
819.651280
 20
39.587554
 30
0.0
  0
SPLINE
  5
302
100
AcDbEntity
  8
Layer_1
 62
7
100
AcDbSpline
 70
8
 71
3
 72
8
 73
4
 74
0
 40
0
 40
0
 40
0
 40
0
 40
1
 40
1
 40
1
 40
1
 10
819.651280
 20
39.587554
 30
0.0
 10
820.197825
 20
39.272005
 30
0.0
 10
820.534511
 20
38.688848
 30
0.0
 10
820.534511
 20
38.057751
 30
0.0
  0
LWPOLYLINE
  5
303
100
AcDbEntity
  8
Layer_1
 62
7
100
AcDbPolyline
 90
1
 70
1
 10
793.836209
 20
63.087409
 30
0.0
  0
SPLINE
  5
304
100
AcDbEntity
  8
Layer_1
 62
7
100
AcDbSpline
 70
8
 71
3
 72
8
 73
4
 74
0
 40
0
 40
0
 40
0
 40
0
 40
1
 40
1
 40
1
 40
1
 10
820.772890
 20
5.876761
 30
0.0
 10
820.772890
 20
5.245664
 30
0.0
 10
820.436204
 20
4.662507
 30
0.0
 10
819.889659
 20
4.346959
 30
0.0
  0
SPLINE
  5
305
100
AcDbEntity
  8
Layer_1
 62
7
100
AcDbSpline
 70
8
 71
3
 72
8
 73
4
 74
0
 40
0
 40
0
 40
0
 40
0
 40
1
 40
1
 40
1
 40
1
 10
819.889659
 20
4.346959
 30
0.0
 10
819.343113
 20
4.031410
 30
0.0
 10
818.669741
 20
4.031410
 30
0.0
 10
818.123195
 20
4.346959
 30
0.0
  0
SPLINE
  5
306
100
AcDbEntity
  8
Layer_1
 62
7
100
AcDbSpline
 70
8
 71
3
 72
8
 73
4
 74
0
 40
0
 40
0
 40
0
 40
0
 40
1
 40
1
 40
1
 40
1
 10
818.123195
 20
4.346959
 30
0.0
 10
817.576649
 20
4.662507
 30
0.0
 10
817.239963
 20
5.245664
 30
0.0
 10
817.239963
 20
5.876761
 30
0.0
  0
SPLINE
  5
307
100
AcDbEntity
  8
Layer_1
 62
7
100
AcDbSpline
 70
8
 71
3
 72
8
 73
4
 74
0
 40
0
 40
0
 40
0
 40
0
 40
1
 40
1
 40
1
 40
1
 10
817.239963
 20
5.876761
 30
0.0
 10
817.239963
 20
6.507858
 30
0.0
 10
817.576649
 20
7.091015
 30
0.0
 10
818.123195
 20
7.406563
 30
0.0
  0
SPLINE
  5
308
100
AcDbEntity
  8
Layer_1
 62
7
100
AcDbSpline
 70
8
 71
3
 72
8
 73
4
 74
0
 40
0
 40
0
 40
0
 40
0
 40
1
 40
1
 40
1
 40
1
 10
818.123195
 20
7.406563
 30
0.0
 10
818.669741
 20
7.722112
 30
0.0
 10
819.343113
 20
7.722112
 30
0.0
 10
819.889659
 20
7.406563
 30
0.0
  0
SPLINE
  5
309
100
AcDbEntity
  8
Layer_1
 62
7
100
AcDbSpline
 70
8
 71
3
 72
8
 73
4
 74
0
 40
0
 40
0
 40
0
 40
0
 40
1
 40
1
 40
1
 40
1
 10
819.889659
 20
7.406563
 30
0.0
 10
820.436204
 20
7.091015
 30
0.0
 10
820.772890
 20
6.507858
 30
0.0
 10
820.772890
 20
5.876761
 30
0.0
  0
LWPOLYLINE
  5
30a
100
AcDbEntity
  8
Layer_1
 62
7
100
AcDbPolyline
 90
1
 70
1
 10
820.534511
 20
38.057751
 30
0.0
  0
SPLINE
  5
30b
100
AcDbEntity
  8
Layer_1
 62
7
100
AcDbSpline
 70
8
 71
3
 72
8
 73
4
 74
0
 40
0
 40
0
 40
0
 40
0
 40
1
 40
1
 40
1
 40
1
 10
798.691729
 20
-17.215752
 30
0.0
 10
798.691729
 20
-17.846849
 30
0.0
 10
798.355042
 20
-18.430006
 30
0.0
 10
797.808497
 20
-18.745555
 30
0.0
  0
SPLINE
  5
30c
100
AcDbEntity
  8
Layer_1
 62
7
100
AcDbSpline
 70
8
 71
3
 72
8
 73
4
 74
0
 40
0
 40
0
 40
0
 40
0
 40
1
 40
1
 40
1
 40
1
 10
797.808497
 20
-18.745555
 30
0.0
 10
797.261951
 20
-19.061103
 30
0.0
 10
796.588579
 20
-19.061103
 30
0.0
 10
796.042033
 20
-18.745555
 30
0.0
  0
SPLINE
  5
30d
100
AcDbEntity
  8
Layer_1
 62
7
100
AcDbSpline
 70
8
 71
3
 72
8
 73
4
 74
0
 40
0
 40
0
 40
0
 40
0
 40
1
 40
1
 40
1
 40
1
 10
796.042033
 20
-18.745555
 30
0.0
 10
795.495487
 20
-18.430006
 30
0.0
 10
795.158801
 20
-17.846849
 30
0.0
 10
795.158801
 20
-17.215752
 30
0.0
  0
SPLINE
  5
30e
100
AcDbEntity
  8
Layer_1
 62
7
100
AcDbSpline
 70
8
 71
3
 72
8
 73
4
 74
0
 40
0
 40
0
 40
0
 40
0
 40
1
 40
1
 40
1
 40
1
 10
795.158801
 20
-17.215752
 30
0.0
 10
795.158801
 20
-16.584655
 30
0.0
 10
795.495487
 20
-16.001498
 30
0.0
 10
796.042033
 20
-15.685950
 30
0.0
  0
SPLINE
  5
30f
100
AcDbEntity
  8
Layer_1
 62
7
100
AcDbSpline
 70
8
 71
3
 72
8
 73
4
 74
0
 40
0
 40
0
 40
0
 40
0
 40
1
 40
1
 40
1
 40
1
 10
796.042033
 20
-15.685950
 30
0.0
 10
796.588579
 20
-15.370401
 30
0.0
 10
797.261951
 20
-15.370401
 30
0.0
 10
797.808497
 20
-15.685950
 30
0.0
  0
SPLINE
  5
310
100
AcDbEntity
  8
Layer_1
 62
7
100
AcDbSpline
 70
8
 71
3
 72
8
 73
4
 74
0
 40
0
 40
0
 40
0
 40
0
 40
1
 40
1
 40
1
 40
1
 10
797.808497
 20
-15.685950
 30
0.0
 10
798.355042
 20
-16.001498
 30
0.0
 10
798.691729
 20
-16.584655
 30
0.0
 10
798.691729
 20
-17.215752
 30
0.0
  0
LWPOLYLINE
  5
311
100
AcDbEntity
  8
Layer_1
 62
7
100
AcDbPolyline
 90
1
 70
1
 10
820.772890
 20
5.876761
 30
0.0
  0
SPLINE
  5
312
100
AcDbEntity
  8
Layer_1
 62
7
100
AcDbSpline
 70
8
 71
3
 72
8
 73
4
 74
0
 40
0
 40
0
 40
0
 40
0
 40
1
 40
1
 40
1
 40
1
 10
766.834174
 20
-19.238455
 30
0.0
 10
766.834174
 20
-19.869551
 30
0.0
 10
766.497488
 20
-20.452709
 30
0.0
 10
765.950942
 20
-20.768257
 30
0.0
  0
SPLINE
  5
313
100
AcDbEntity
  8
Layer_1
 62
7
100
AcDbSpline
 70
8
 71
3
 72
8
 73
4
 74
0
 40
0
 40
0
 40
0
 40
0
 40
1
 40
1
 40
1
 40
1
 10
765.950942
 20
-20.768257
 30
0.0
 10
765.404397
 20
-21.083806
 30
0.0
 10
764.731025
 20
-21.083806
 30
0.0
 10
764.184479
 20
-20.768257
 30
0.0
  0
SPLINE
  5
314
100
AcDbEntity
  8
Layer_1
 62
7
100
AcDbSpline
 70
8
 71
3
 72
8
 73
4
 74
0
 40
0
 40
0
 40
0
 40
0
 40
1
 40
1
 40
1
 40
1
 10
764.184479
 20
-20.768257
 30
0.0
 10
763.637933
 20
-20.452709
 30
0.0
 10
763.301247
 20
-19.869551
 30
0.0
 10
763.301247
 20
-19.238455
 30
0.0
  0
SPLINE
  5
315
100
AcDbEntity
  8
Layer_1
 62
7
100
AcDbSpline
 70
8
 71
3
 72
8
 73
4
 74
0
 40
0
 40
0
 40
0
 40
0
 40
1
 40
1
 40
1
 40
1
 10
763.301247
 20
-19.238455
 30
0.0
 10
763.301247
 20
-18.607358
 30
0.0
 10
763.637933
 20
-18.024201
 30
0.0
 10
764.184479
 20
-17.708652
 30
0.0
  0
SPLINE
  5
316
100
AcDbEntity
  8
Layer_1
 62
7
100
AcDbSpline
 70
8
 71
3
 72
8
 73
4
 74
0
 40
0
 40
0
 40
0
 40
0
 40
1
 40
1
 40
1
 40
1
 10
764.184479
 20
-17.708652
 30
0.0
 10
764.731025
 20
-17.393104
 30
0.0
 10
765.404397
 20
-17.393104
 30
0.0
 10
765.950942
 20
-17.708652
 30
0.0
  0
SPLINE
  5
317
100
AcDbEntity
  8
Layer_1
 62
7
100
AcDbSpline
 70
8
 71
3
 72
8
 73
4
 74
0
 40
0
 40
0
 40
0
 40
0
 40
1
 40
1
 40
1
 40
1
 10
765.950942
 20
-17.708652
 30
0.0
 10
766.497488
 20
-18.024201
 30
0.0
 10
766.834174
 20
-18.607358
 30
0.0
 10
766.834174
 20
-19.238455
 30
0.0
  0
LWPOLYLINE
  5
318
100
AcDbEntity
  8
Layer_1
 62
7
100
AcDbPolyline
 90
1
 70
1
 10
798.691729
 20
-17.215752
 30
0.0
  0
SPLINE
  5
319
100
AcDbEntity
  8
Layer_1
 62
7
100
AcDbSpline
 70
8
 71
3
 72
8
 73
4
 74
0
 40
0
 40
0
 40
0
 40
0
 40
1
 40
1
 40
1
 40
1
 10
745.403756
 20
-3.201908
 30
0.0
 10
745.403756
 20
-3.833005
 30
0.0
 10
745.067070
 20
-4.416162
 30
0.0
 10
744.520524
 20
-4.731711
 30
0.0
  0
SPLINE
  5
31a
100
AcDbEntity
  8
Layer_1
 62
7
100
AcDbSpline
 70
8
 71
3
 72
8
 73
4
 74
0
 40
0
 40
0
 40
0
 40
0
 40
1
 40
1
 40
1
 40
1
 10
744.520524
 20
-4.731711
 30
0.0
 10
743.973979
 20
-5.047259
 30
0.0
 10
743.300606
 20
-5.047259
 30
0.0
 10
742.754061
 20
-4.731711
 30
0.0
  0
SPLINE
  5
31b
100
AcDbEntity
  8
Layer_1
 62
7
100
AcDbSpline
 70
8
 71
3
 72
8
 73
4
 74
0
 40
0
 40
0
 40
0
 40
0
 40
1
 40
1
 40
1
 40
1
 10
742.754061
 20
-4.731711
 30
0.0
 10
742.207515
 20
-4.416162
 30
0.0
 10
741.870829
 20
-3.833005
 30
0.0
 10
741.870829
 20
-3.201908
 30
0.0
  0
SPLINE
  5
31c
100
AcDbEntity
  8
Layer_1
 62
7
100
AcDbSpline
 70
8
 71
3
 72
8
 73
4
 74
0
 40
0
 40
0
 40
0
 40
0
 40
1
 40
1
 40
1
 40
1
 10
741.870829
 20
-3.201908
 30
0.0
 10
741.870829
 20
-2.570811
 30
0.0
 10
742.207515
 20
-1.987654
 30
0.0
 10
742.754061
 20
-1.672106
 30
0.0
  0
SPLINE
  5
31d
100
AcDbEntity
  8
Layer_1
 62
7
100
AcDbSpline
 70
8
 71
3
 72
8
 73
4
 74
0
 40
0
 40
0
 40
0
 40
0
 40
1
 40
1
 40
1
 40
1
 10
742.754061
 20
-1.672106
 30
0.0
 10
743.300606
 20
-1.356557
 30
0.0
 10
743.973979
 20
-1.356557
 30
0.0
 10
744.520524
 20
-1.672106
 30
0.0
  0
SPLINE
  5
31e
100
AcDbEntity
  8
Layer_1
 62
7
100
AcDbSpline
 70
8
 71
3
 72
8
 73
4
 74
0
 40
0
 40
0
 40
0
 40
0
 40
1
 40
1
 40
1
 40
1
 10
744.520524
 20
-1.672106
 30
0.0
 10
745.067070
 20
-1.987654
 30
0.0
 10
745.403756
 20
-2.570811
 30
0.0
 10
745.403756
 20
-3.201908
 30
0.0
  0
LWPOLYLINE
  5
31f
100
AcDbEntity
  8
Layer_1
 62
7
100
AcDbPolyline
 90
1
 70
1
 10
766.834174
 20
-19.238455
 30
0.0
  0
LWPOLYLINE
  5
320
100
AcDbEntity
  8
Layer_1
 62
7
100
AcDbPolyline
 90
1
 70
1
 10
745.403756
 20
-3.201908
 30
0.0
  0
SPLINE
  5
321
100
AcDbEntity
  8
Layer_1
 62
7
100
AcDbSpline
 70
8
 71
3
 72
8
 73
4
 74
0
 40
0
 40
0
 40
0
 40
0
 40
1
 40
1
 40
1
 40
1
 10
930.764446
 20
15.899258
 30
0.0
 10
930.764446
 20
14.932760
 30
0.0
 10
929.980944
 20
14.149258
 30
0.0
 10
929.014446
 20
14.149258
 30
0.0
  0
SPLINE
  5
322
100
AcDbEntity
  8
Layer_1
 62
7
100
AcDbSpline
 70
8
 71
3
 72
8
 73
4
 74
0
 40
0
 40
0
 40
0
 40
0
 40
1
 40
1
 40
1
 40
1
 10
929.014446
 20
14.149258
 30
0.0
 10
928.047947
 20
14.149258
 30
0.0
 10
927.264446
 20
14.932760
 30
0.0
 10
927.264446
 20
15.899258
 30
0.0
  0
SPLINE
  5
323
100
AcDbEntity
  8
Layer_1
 62
7
100
AcDbSpline
 70
8
 71
3
 72
8
 73
4
 74
0
 40
0
 40
0
 40
0
 40
0
 40
1
 40
1
 40
1
 40
1
 10
927.264446
 20
15.899258
 30
0.0
 10
927.264446
 20
16.865757
 30
0.0
 10
928.047947
 20
17.649258
 30
0.0
 10
929.014446
 20
17.649258
 30
0.0
  0
SPLINE
  5
324
100
AcDbEntity
  8
Layer_1
 62
7
100
AcDbSpline
 70
8
 71
3
 72
8
 73
4
 74
0
 40
0
 40
0
 40
0
 40
0
 40
1
 40
1
 40
1
 40
1
 10
929.014446
 20
17.649258
 30
0.0
 10
929.980944
 20
17.649258
 30
0.0
 10
930.764446
 20
16.865757
 30
0.0
 10
930.764446
 20
15.899258
 30
0.0
  0
LWPOLYLINE
  5
325
100
AcDbEntity
  8
Layer_1
 62
7
100
AcDbPolyline
 90
400
 70
1
 10
974.825796
 20
17.421213
 30
0.0
 10
976.009624
 20
17.460541
 30
0.0
 10
976.737368
 20
17.399012
 30
0.0
 10
978.659833
 20
16.942219
 30
0.0
 10
978.659833
 20
14.856297
 30
0.0
 10
976.737368
 20
14.399505
 30
0.0
 10
976.009624
 20
14.337976
 30
0.0
 10
974.825796
 20
14.377304
 30
0.0
 10
974.655311
 20
11.667526
 30
0.0
 10
975.834734
 20
11.558173
 30
0.0
 10
976.549027
 20
11.405916
 30
0.0
 10
978.399084
 20
10.711777
 30
0.0
 10
978.137649
 20
8.642306
 30
0.0
 10
976.173091
 20
8.430063
 30
0.0
 10
975.443373
 20
8.460228
 30
0.0
 10
974.273806
 20
8.647622
 30
0.0
 10
973.765041
 20
5.980577
 30
0.0
 10
974.921461
 20
5.724264
 30
0.0
 10
975.611039
 20
5.483687
 30
0.0
 10
977.359507
 20
4.563146
 30
0.0
 10
976.840759
 20
2.542758
 30
0.0
 10
974.865092
 20
2.578414
 30
0.0
 10
974.144909
 20
2.699799
 30
0.0
 10
973.008053
 20
3.032301
 30
0.0
 10
972.169030
 20
0.450052
 30
0.0
 10
973.284204
 20
0.050823
 30
0.0
 10
973.938193
 20
-0.274287
 30
0.0
 10
975.557498
 20
-1.406709
 30
0.0
 10
974.789622
 20
-3.346147
 30
0.0
 10
972.834002
 20
-3.063157
 30
0.0
 10
972.134711
 20
-2.852466
 30
0.0
 10
971.048493
 20
-2.380100
 30
0.0
 10
969.892444
 20
-4.836828
 30
0.0
 10
970.948790
 20
-5.372678
 30
0.0
 10
971.556874
 20
-5.777192
 30
0.0
 10
973.021480
 20
-7.103638
 30
0.0
 10
972.016582
 20
-8.931544
 30
0.0
 10
970.111849
 20
-8.405679
 30
0.0
 10
969.444480
 20
-8.109004
 30
0.0
 10
968.426030
 20
-7.504225
 30
0.0
 10
966.971187
 20
-9.796691
 30
0.0
 10
967.952042
 20
-10.460711
 30
0.0
 10
968.504635
 20
-10.938247
 30
0.0
 10
969.791444
 20
-12.437797
 30
0.0
 10
968.565373
 20
-14.125341
 30
0.0
 10
966.741568
 20
-13.364897
 30
0.0
 10
966.116646
 20
-12.986918
 30
0.0
 10
965.182024
 20
-12.259264
 30
0.0
 10
963.451332
 20
-14.351311
 30
0.0
 10
964.341229
 20
-15.133030
 30
0.0
 10
964.829610
 20
-15.676058
 30
0.0
 10
965.918331
 20
-17.325063
 30
0.0
 10
964.490422
 20
-18.845634
 30
0.0
 10
962.776308
 20
-17.862604
 30
0.0
 10
962.203684
 20
-17.409283
 30
0.0
 10
961.367632
 20
-16.570226
 30
0.0
 10
959.388385
 20
-18.428863
 30
0.0
 10
960.173290
 20
-19.315950
 30
0.0
 10
960.589762
 20
-19.915906
 30
0.0
 10
961.463221
 20
-21.688363
 30
0.0
 10
959.855993
 20
-23.017979
 30
0.0
 10
958.278601
 20
-21.827864
 30
0.0
 10
957.767312
 20
-21.306349
 30
0.0
 10
957.043012
 20
-20.369124
 30
0.0
 10
954.846423
 20
-21.965040
 30
0.0
 10
955.513956
 20
-22.943506
 30
0.0
 10
955.851951
 20
-23.590931
 30
0.0
 10
956.496375
 20
-25.458884
 30
0.0
 10
954.735174
 20
-26.576574
 30
0.0
 10
953.319383
 20
-25.198145
 30
0.0
 10
952.877486
 20
-24.616660
 30
0.0
 10
952.276366
 20
-23.596046
 30
0.0
 10
949.897074
 20
-24.904074
 30
0.0
 10
950.436710
 20
-25.958489
 30
0.0
 10
950.690896
 20
-26.643170
 30
0.0
 10
951.096121
 20
-28.577160
 30
0.0
 10
949.208726
 20
-29.465303
 30
0.0
 10
947.976861
 20
-27.920298
 30
0.0
 10
947.611328
 20
-27.288012
 30
0.0
 10
947.142865
 20
-26.200107
 30
0.0
 10
944.618396
 20
-27.199615
 30
0.0
 10
945.021624
 20
-28.313350
 30
0.0
 10
945.187991
 20
-29.024489
 30
0.0
 10
945.347627
 20
-30.994018
 30
0.0
 10
943.363800
 20
-31.638604
 30
0.0
 10
942.335290
 20
-29.951388
 30
0.0
 10
942.051887
 20
-29.278277
 30
0.0
 10
941.723468
 20
-28.140233
 30
0.0
 10
939.093631
 20
-28.815460
 30
0.0
 10
939.354092
 20
-29.970951
 30
0.0
 10
939.430017
 20
-30.697335
 30
0.0
 10
939.341551
 20
-32.671341
 30
0.0
 10
937.292578
 20
-33.062205
 30
0.0
 10
936.483641
 20
-31.259387
 30
0.0
 10
936.286836
 20
-30.556061
 30
0.0
 10
936.103641
 20
-29.385833
 30
0.0
 10
933.409916
 20
-29.726129
 30
0.0
 10
933.523499
 20
-30.905152
 30
0.0
 10
933.507788
 20
-31.635323
 30
0.0
 10
933.172608
 20
-33.582677
 30
0.0
 10
931.090803
 20
-33.713654
 30
0.0
 10
930.514199
 20
-31.823664
 30
0.0
 10
930.407096
 20
-31.101219
 30
0.0
 10
930.372015
 20
-29.917256
 30
0.0
 10
927.656876
 20
-29.917256
 30
0.0
 10
927.621795
 20
-31.101219
 30
0.0
 10
927.514692
 20
-31.823664
 30
0.0
 10
926.938088
 20
-33.713654
 30
0.0
 10
924.856283
 20
-33.582677
 30
0.0
 10
924.521104
 20
-31.635323
 30
0.0
 10
924.505393
 20
-30.905152
 30
0.0
 10
924.618976
 20
-29.726129
 30
0.0
 10
921.925250
 20
-29.385833
 30
0.0
 10
921.742055
 20
-30.556061
 30
0.0
 10
921.545250
 20
-31.259387
 30
0.0
 10
920.736313
 20
-33.062205
 30
0.0
 10
918.687340
 20
-32.671341
 30
0.0
 10
918.598874
 20
-30.697335
 30
0.0
 10
918.674799
 20
-29.970951
 30
0.0
 10
918.935260
 20
-28.815460
 30
0.0
 10
916.305423
 20
-28.140233
 30
0.0
 10
915.977004
 20
-29.278277
 30
0.0
 10
915.693601
 20
-29.951388
 30
0.0
 10
914.665091
 20
-31.638604
 30
0.0
 10
912.681264
 20
-30.994018
 30
0.0
 10
912.840900
 20
-29.024489
 30
0.0
 10
913.007268
 20
-28.313350
 30
0.0
 10
913.410495
 20
-27.199615
 30
0.0
 10
910.886026
 20
-26.200107
 30
0.0
 10
910.417563
 20
-27.288012
 30
0.0
 10
910.052031
 20
-27.920298
 30
0.0
 10
908.820165
 20
-29.465303
 30
0.0
 10
906.932770
 20
-28.577160
 30
0.0
 10
907.337996
 20
-26.643170
 30
0.0
 10
907.592181
 20
-25.958489
 30
0.0
 10
908.131817
 20
-24.904074
 30
0.0
 10
905.752525
 20
-23.596046
 30
0.0
 10
905.151405
 20
-24.616660
 30
0.0
 10
904.709508
 20
-25.198145
 30
0.0
 10
903.293718
 20
-26.576574
 30
0.0
 10
901.532516
 20
-25.458884
 30
0.0
 10
902.176941
 20
-23.590931
 30
0.0
 10
902.514935
 20
-22.943506
 30
0.0
 10
903.182468
 20
-21.965040
 30
0.0
 10
900.985879
 20
-20.369124
 30
0.0
 10
900.261579
 20
-21.306349
 30
0.0
 10
899.750291
 20
-21.827864
 30
0.0
 10
898.172898
 20
-23.017979
 30
0.0
 10
896.565670
 20
-21.688363
 30
0.0
 10
897.439129
 20
-19.915906
 30
0.0
 10
897.855602
 20
-19.315950
 30
0.0
 10
898.640507
 20
-18.428863
 30
0.0
 10
896.661259
 20
-16.570226
 30
0.0
 10
895.825208
 20
-17.409283
 30
0.0
 10
895.252583
 20
-17.862604
 30
0.0
 10
893.538469
 20
-18.845634
 30
0.0
 10
892.110561
 20
-17.325063
 30
0.0
 10
893.199281
 20
-15.676058
 30
0.0
 10
893.687663
 20
-15.133030
 30
0.0
 10
894.577560
 20
-14.351311
 30
0.0
 10
892.846867
 20
-12.259264
 30
0.0
 10
891.912245
 20
-12.986918
 30
0.0
 10
891.287323
 20
-13.364897
 30
0.0
 10
889.463518
 20
-14.125341
 30
0.0
 10
888.237447
 20
-12.437797
 30
0.0
 10
889.524256
 20
-10.938247
 30
0.0
 10
890.076849
 20
-10.460711
 30
0.0
 10
891.057704
 20
-9.796691
 30
0.0
 10
889.602861
 20
-7.504225
 30
0.0
 10
888.584411
 20
-8.109004
 30
0.0
 10
887.917042
 20
-8.405679
 30
0.0
 10
886.012309
 20
-8.931544
 30
0.0
 10
885.007411
 20
-7.103638
 30
0.0
 10
886.472017
 20
-5.777192
 30
0.0
 10
887.080101
 20
-5.372678
 30
0.0
 10
888.136448
 20
-4.836828
 30
0.0
 10
886.980398
 20
-2.380100
 30
0.0
 10
885.894181
 20
-2.852466
 30
0.0
 10
885.194890
 20
-3.063157
 30
0.0
 10
883.239269
 20
-3.346147
 30
0.0
 10
882.471393
 20
-1.406709
 30
0.0
 10
884.090699
 20
-0.274287
 30
0.0
 10
884.744688
 20
0.050823
 30
0.0
 10
885.859861
 20
0.450052
 30
0.0
 10
885.020839
 20
3.032301
 30
0.0
 10
883.883982
 20
2.699799
 30
0.0
 10
883.163800
 20
2.578414
 30
0.0
 10
881.188132
 20
2.542758
 30
0.0
 10
880.669385
 20
4.563146
 30
0.0
 10
882.417852
 20
5.483687
 30
0.0
 10
883.107430
 20
5.724264
 30
0.0
 10
884.263850
 20
5.980577
 30
0.0
 10
883.755085
 20
8.647622
 30
0.0
 10
882.585518
 20
8.460228
 30
0.0
 10
881.855800
 20
8.430063
 30
0.0
 10
879.891242
 20
8.642306
 30
0.0
 10
879.629808
 20
10.711777
 30
0.0
 10
881.479864
 20
11.405916
 30
0.0
 10
882.194157
 20
11.558173
 30
0.0
 10
883.373580
 20
11.667526
 30
0.0
 10
883.203096
 20
14.377304
 30
0.0
 10
882.019268
 20
14.337976
 30
0.0
 10
881.291523
 20
14.399505
 30
0.0
 10
879.369058
 20
14.856297
 30
0.0
 10
879.369058
 20
16.942219
 30
0.0
 10
881.291523
 20
17.399012
 30
0.0
 10
882.019268
 20
17.460541
 30
0.0
 10
883.203096
 20
17.421213
 30
0.0
 10
883.373580
 20
20.130991
 30
0.0
 10
882.194157
 20
20.240343
 30
0.0
 10
881.479864
 20
20.392600
 30
0.0
 10
879.629808
 20
21.086740
 30
0.0
 10
879.891242
 20
23.156210
 30
0.0
 10
881.855800
 20
23.368454
 30
0.0
 10
882.585518
 20
23.338289
 30
0.0
 10
883.755085
 20
23.150895
 30
0.0
 10
884.263850
 20
25.817940
 30
0.0
 10
883.107430
 20
26.074252
 30
0.0
 10
882.417852
 20
26.314830
 30
0.0
 10
880.669385
 20
27.235371
 30
0.0
 10
881.188132
 20
29.255758
 30
0.0
 10
883.163800
 20
29.220103
 30
0.0
 10
883.883982
 20
29.098718
 30
0.0
 10
885.020839
 20
28.766216
 30
0.0
 10
885.859861
 20
31.348464
 30
0.0
 10
884.744688
 20
31.747694
 30
0.0
 10
884.090699
 20
32.072804
 30
0.0
 10
882.471393
 20
33.205226
 30
0.0
 10
883.239269
 20
35.144664
 30
0.0
 10
885.194890
 20
34.861673
 30
0.0
 10
885.894181
 20
34.650983
 30
0.0
 10
886.980398
 20
34.178617
 30
0.0
 10
888.136448
 20
36.635345
 30
0.0
 10
887.080101
 20
37.171195
 30
0.0
 10
886.472017
 20
37.575708
 30
0.0
 10
885.007411
 20
38.902155
 30
0.0
 10
886.012309
 20
40.730060
 30
0.0
 10
887.917042
 20
40.204196
 30
0.0
 10
888.584411
 20
39.907521
 30
0.0
 10
889.602861
 20
39.302742
 30
0.0
 10
891.057704
 20
41.595208
 30
0.0
 10
890.076849
 20
42.259228
 30
0.0
 10
889.524256
 20
42.736763
 30
0.0
 10
888.237447
 20
44.236313
 30
0.0
 10
889.463518
 20
45.923858
 30
0.0
 10
891.287323
 20
45.163413
 30
0.0
 10
891.912245
 20
44.785435
 30
0.0
 10
892.846867
 20
44.057780
 30
0.0
 10
894.577560
 20
46.149828
 30
0.0
 10
893.687663
 20
46.931547
 30
0.0
 10
893.199281
 20
47.474575
 30
0.0
 10
892.110561
 20
49.123580
 30
0.0
 10
893.538469
 20
50.644151
 30
0.0
 10
895.252583
 20
49.661121
 30
0.0
 10
895.825208
 20
49.207800
 30
0.0
 10
896.661259
 20
48.368742
 30
0.0
 10
898.640507
 20
50.227380
 30
0.0
 10
897.855602
 20
51.114467
 30
0.0
 10
897.439129
 20
51.714423
 30
0.0
 10
896.565670
 20
53.486879
 30
0.0
 10
898.172898
 20
54.816495
 30
0.0
 10
899.750291
 20
53.626381
 30
0.0
 10
900.261579
 20
53.104866
 30
0.0
 10
900.985879
 20
52.167641
 30
0.0
 10
903.182468
 20
53.763557
 30
0.0
 10
902.514935
 20
54.742023
 30
0.0
 10
902.176941
 20
55.389448
 30
0.0
 10
901.532516
 20
57.257401
 30
0.0
 10
903.293718
 20
58.375091
 30
0.0
 10
904.709508
 20
56.996662
 30
0.0
 10
905.151405
 20
56.415177
 30
0.0
 10
905.752525
 20
55.394562
 30
0.0
 10
908.131817
 20
56.702591
 30
0.0
 10
907.592181
 20
57.757006
 30
0.0
 10
907.337996
 20
58.441687
 30
0.0
 10
906.932770
 20
60.375677
 30
0.0
 10
908.820165
 20
61.263820
 30
0.0
 10
910.052031
 20
59.718814
 30
0.0
 10
910.417563
 20
59.086529
 30
0.0
 10
910.886026
 20
57.998623
 30
0.0
 10
913.410495
 20
58.998132
 30
0.0
 10
913.007268
 20
60.111866
 30
0.0
 10
912.840900
 20
60.823005
 30
0.0
 10
912.681264
 20
62.792535
 30
0.0
 10
914.665091
 20
63.437120
 30
0.0
 10
915.693601
 20
61.749904
 30
0.0
 10
915.977004
 20
61.076794
 30
0.0
 10
916.305423
 20
59.938749
 30
0.0
 10
918.935260
 20
60.613977
 30
0.0
 10
918.674799
 20
61.769468
 30
0.0
 10
918.598874
 20
62.495852
 30
0.0
 10
918.687340
 20
64.469858
 30
0.0
 10
920.736313
 20
64.860722
 30
0.0
 10
921.545250
 20
63.057904
 30
0.0
 10
921.742055
 20
62.354578
 30
0.0
 10
921.925250
 20
61.184349
 30
0.0
 10
924.618976
 20
61.524646
 30
0.0
 10
924.505393
 20
62.703669
 30
0.0
 10
924.521104
 20
63.433840
 30
0.0
 10
924.856283
 20
65.381194
 30
0.0
 10
926.938088
 20
65.512171
 30
0.0
 10
927.514692
 20
63.622181
 30
0.0
 10
927.621795
 20
62.899736
 30
0.0
 10
927.656876
 20
61.715773
 30
0.0
 10
930.372015
 20
61.715773
 30
0.0
 10
930.407096
 20
62.899736
 30
0.0
 10
930.514199
 20
63.622181
 30
0.0
 10
931.090803
 20
65.512171
 30
0.0
 10
933.172608
 20
65.381194
 30
0.0
 10
933.507788
 20
63.433840
 30
0.0
 10
933.523499
 20
62.703669
 30
0.0
 10
933.409916
 20
61.524646
 30
0.0
 10
936.103641
 20
61.184349
 30
0.0
 10
936.286836
 20
62.354578
 30
0.0
 10
936.483641
 20
63.057904
 30
0.0
 10
937.292578
 20
64.860722
 30
0.0
 10
939.341551
 20
64.469858
 30
0.0
 10
939.430017
 20
62.495852
 30
0.0
 10
939.354092
 20
61.769468
 30
0.0
 10
939.093631
 20
60.613977
 30
0.0
 10
941.723468
 20
59.938749
 30
0.0
 10
942.051887
 20
61.076794
 30
0.0
 10
942.335290
 20
61.749904
 30
0.0
 10
943.363800
 20
63.437120
 30
0.0
 10
945.347627
 20
62.792535
 30
0.0
 10
945.187991
 20
60.823005
 30
0.0
 10
945.021624
 20
60.111866
 30
0.0
 10
944.618396
 20
58.998132
 30
0.0
 10
947.142865
 20
57.998623
 30
0.0
 10
947.611328
 20
59.086529
 30
0.0
 10
947.976861
 20
59.718814
 30
0.0
 10
949.208726
 20
61.263820
 30
0.0
 10
951.096121
 20
60.375677
 30
0.0
 10
950.690896
 20
58.441687
 30
0.0
 10
950.436710
 20
57.757006
 30
0.0
 10
949.897074
 20
56.702591
 30
0.0
 10
952.276366
 20
55.394562
 30
0.0
 10
952.877486
 20
56.415177
 30
0.0
 10
953.319383
 20
56.996662
 30
0.0
 10
954.735174
 20
58.375091
 30
0.0
 10
956.496375
 20
57.257401
 30
0.0
 10
955.851951
 20
55.389448
 30
0.0
 10
955.513956
 20
54.742023
 30
0.0
 10
954.846423
 20
53.763557
 30
0.0
 10
957.043012
 20
52.167641
 30
0.0
 10
957.767312
 20
53.104866
 30
0.0
 10
958.278601
 20
53.626381
 30
0.0
 10
959.855993
 20
54.816495
 30
0.0
 10
961.463221
 20
53.486879
 30
0.0
 10
960.589762
 20
51.714423
 30
0.0
 10
960.173290
 20
51.114467
 30
0.0
 10
959.388385
 20
50.227380
 30
0.0
 10
961.367632
 20
48.368742
 30
0.0
 10
962.203684
 20
49.207800
 30
0.0
 10
962.776308
 20
49.661121
 30
0.0
 10
964.490422
 20
50.644151
 30
0.0
 10
965.918331
 20
49.123580
 30
0.0
 10
964.829610
 20
47.474575
 30
0.0
 10
964.341229
 20
46.931547
 30
0.0
 10
963.451332
 20
46.149828
 30
0.0
 10
965.182024
 20
44.057780
 30
0.0
 10
966.116646
 20
44.785435
 30
0.0
 10
966.741568
 20
45.163413
 30
0.0
 10
968.565373
 20
45.923858
 30
0.0
 10
969.791444
 20
44.236313
 30
0.0
 10
968.504635
 20
42.736763
 30
0.0
 10
967.952042
 20
42.259228
 30
0.0
 10
966.971187
 20
41.595208
 30
0.0
 10
968.426030
 20
39.302742
 30
0.0
 10
969.444480
 20
39.907521
 30
0.0
 10
970.111849
 20
40.204196
 30
0.0
 10
972.016582
 20
40.730060
 30
0.0
 10
973.021480
 20
38.902155
 30
0.0
 10
971.556874
 20
37.575708
 30
0.0
 10
970.948790
 20
37.171195
 30
0.0
 10
969.892444
 20
36.635345
 30
0.0
 10
971.048493
 20
34.178617
 30
0.0
 10
972.134711
 20
34.650983
 30
0.0
 10
972.834002
 20
34.861673
 30
0.0
 10
974.789622
 20
35.144664
 30
0.0
 10
975.557498
 20
33.205226
 30
0.0
 10
973.938193
 20
32.072804
 30
0.0
 10
973.284204
 20
31.747694
 30
0.0
 10
972.169030
 20
31.348464
 30
0.0
 10
973.008053
 20
28.766216
 30
0.0
 10
974.144909
 20
29.098718
 30
0.0
 10
974.865092
 20
29.220103
 30
0.0
 10
976.840759
 20
29.255758
 30
0.0
 10
977.359507
 20
27.235371
 30
0.0
 10
975.611039
 20
26.314830
 30
0.0
 10
974.921461
 20
26.074252
 30
0.0
 10
973.765041
 20
25.817940
 30
0.0
 10
974.273806
 20
23.150895
 30
0.0
 10
975.443373
 20
23.338289
 30
0.0
 10
976.173091
 20
23.368454
 30
0.0
 10
978.137649
 20
23.156210
 30
0.0
 10
978.399084
 20
21.086740
 30
0.0
 10
976.549027
 20
20.392600
 30
0.0
 10
975.834734
 20
20.240343
 30
0.0
 10
974.655311
 20
20.130991
 30
0.0
  0
SPLINE
  5
326
100
AcDbEntity
  8
Layer_1
 62
7
100
AcDbSpline
 70
8
 71
3
 72
8
 73
4
 74
0
 40
0
 40
0
 40
0
 40
0
 40
1
 40
1
 40
1
 40
1
 10
888.472156
 20
26.496431
 30
0.0
 10
888.472156
 20
25.865334
 30
0.0
 10
888.135470
 20
25.282177
 30
0.0
 10
887.588924
 20
24.966628
 30
0.0
  0
SPLINE
  5
327
100
AcDbEntity
  8
Layer_1
 62
7
100
AcDbSpline
 70
8
 71
3
 72
8
 73
4
 74
0
 40
0
 40
0
 40
0
 40
0
 40
1
 40
1
 40
1
 40
1
 10
887.588924
 20
24.966628
 30
0.0
 10
887.042378
 20
24.651080
 30
0.0
 10
886.369006
 20
24.651080
 30
0.0
 10
885.822460
 20
24.966628
 30
0.0
  0
SPLINE
  5
328
100
AcDbEntity
  8
Layer_1
 62
7
100
AcDbSpline
 70
8
 71
3
 72
8
 73
4
 74
0
 40
0
 40
0
 40
0
 40
0
 40
1
 40
1
 40
1
 40
1
 10
885.822460
 20
24.966628
 30
0.0
 10
885.275915
 20
25.282177
 30
0.0
 10
884.939229
 20
25.865334
 30
0.0
 10
884.939229
 20
26.496431
 30
0.0
  0
SPLINE
  5
329
100
AcDbEntity
  8
Layer_1
 62
7
100
AcDbSpline
 70
8
 71
3
 72
8
 73
4
 74
0
 40
0
 40
0
 40
0
 40
0
 40
1
 40
1
 40
1
 40
1
 10
884.939229
 20
26.496431
 30
0.0
 10
884.939229
 20
27.127527
 30
0.0
 10
885.275915
 20
27.710685
 30
0.0
 10
885.822460
 20
28.026233
 30
0.0
  0
SPLINE
  5
32a
100
AcDbEntity
  8
Layer_1
 62
7
100
AcDbSpline
 70
8
 71
3
 72
8
 73
4
 74
0
 40
0
 40
0
 40
0
 40
0
 40
1
 40
1
 40
1
 40
1
 10
885.822460
 20
28.026233
 30
0.0
 10
886.369006
 20
28.341782
 30
0.0
 10
887.042378
 20
28.341782
 30
0.0
 10
887.588924
 20
28.026233
 30
0.0
  0
SPLINE
  5
32b
100
AcDbEntity
  8
Layer_1
 62
7
100
AcDbSpline
 70
8
 71
3
 72
8
 73
4
 74
0
 40
0
 40
0
 40
0
 40
0
 40
1
 40
1
 40
1
 40
1
 10
887.588924
 20
28.026233
 30
0.0
 10
888.135470
 20
27.710685
 30
0.0
 10
888.472156
 20
27.127527
 30
0.0
 10
888.472156
 20
26.496431
 30
0.0
  0
LWPOLYLINE
  5
32c
100
AcDbEntity
  8
Layer_1
 62
7
100
AcDbPolyline
 90
1
 70
1
 10
930.764446
 20
15.899258
 30
0.0
  0
SPLINE
  5
32d
100
AcDbEntity
  8
Layer_1
 62
7
100
AcDbSpline
 70
8
 71
3
 72
8
 73
4
 74
0
 40
0
 40
0
 40
0
 40
0
 40
1
 40
1
 40
1
 40
1
 10
907.661560
 20
52.360412
 30
0.0
 10
907.661560
 20
51.729315
 30
0.0
 10
907.324874
 20
51.146158
 30
0.0
 10
906.778328
 20
50.830610
 30
0.0
  0
SPLINE
  5
32e
100
AcDbEntity
  8
Layer_1
 62
7
100
AcDbSpline
 70
8
 71
3
 72
8
 73
4
 74
0
 40
0
 40
0
 40
0
 40
0
 40
1
 40
1
 40
1
 40
1
 10
906.778328
 20
50.830610
 30
0.0
 10
906.231782
 20
50.515061
 30
0.0
 10
905.558410
 20
50.515061
 30
0.0
 10
905.011864
 20
50.830610
 30
0.0
  0
SPLINE
  5
32f
100
AcDbEntity
  8
Layer_1
 62
7
100
AcDbSpline
 70
8
 71
3
 72
8
 73
4
 74
0
 40
0
 40
0
 40
0
 40
0
 40
1
 40
1
 40
1
 40
1
 10
905.011864
 20
50.830610
 30
0.0
 10
904.465318
 20
51.146158
 30
0.0
 10
904.128632
 20
51.729315
 30
0.0
 10
904.128632
 20
52.360412
 30
0.0
  0
SPLINE
  5
330
100
AcDbEntity
  8
Layer_1
 62
7
100
AcDbSpline
 70
8
 71
3
 72
8
 73
4
 74
0
 40
0
 40
0
 40
0
 40
0
 40
1
 40
1
 40
1
 40
1
 10
904.128632
 20
52.360412
 30
0.0
 10
904.128632
 20
52.991509
 30
0.0
 10
904.465318
 20
53.574666
 30
0.0
 10
905.011864
 20
53.890214
 30
0.0
  0
SPLINE
  5
331
100
AcDbEntity
  8
Layer_1
 62
7
100
AcDbSpline
 70
8
 71
3
 72
8
 73
4
 74
0
 40
0
 40
0
 40
0
 40
0
 40
1
 40
1
 40
1
 40
1
 10
905.011864
 20
53.890214
 30
0.0
 10
905.558410
 20
54.205763
 30
0.0
 10
906.231782
 20
54.205763
 30
0.0
 10
906.778328
 20
53.890214
 30
0.0
  0
SPLINE
  5
332
100
AcDbEntity
  8
Layer_1
 62
7
100
AcDbSpline
 70
8
 71
3
 72
8
 73
4
 74
0
 40
0
 40
0
 40
0
 40
0
 40
1
 40
1
 40
1
 40
1
 10
906.778328
 20
53.890214
 30
0.0
 10
907.324874
 20
53.574666
 30
0.0
 10
907.661560
 20
52.991509
 30
0.0
 10
907.661560
 20
52.360412
 30
0.0
  0
LWPOLYLINE
  5
333
100
AcDbEntity
  8
Layer_1
 62
7
100
AcDbPolyline
 90
1
 70
1
 10
888.472156
 20
26.496431
 30
0.0
  0
SPLINE
  5
334
100
AcDbEntity
  8
Layer_1
 62
7
100
AcDbSpline
 70
8
 71
3
 72
8
 73
4
 74
0
 40
0
 40
0
 40
0
 40
0
 40
1
 40
1
 40
1
 40
1
 10
944.014161
 20
56.889589
 30
0.0
 10
944.014161
 20
56.258492
 30
0.0
 10
943.677475
 20
55.675335
 30
0.0
 10
943.130930
 20
55.359787
 30
0.0
  0
SPLINE
  5
335
100
AcDbEntity
  8
Layer_1
 62
7
100
AcDbSpline
 70
8
 71
3
 72
8
 73
4
 74
0
 40
0
 40
0
 40
0
 40
0
 40
1
 40
1
 40
1
 40
1
 10
943.130930
 20
55.359787
 30
0.0
 10
942.584384
 20
55.044238
 30
0.0
 10
941.911012
 20
55.044238
 30
0.0
 10
941.364466
 20
55.359787
 30
0.0
  0
SPLINE
  5
336
100
AcDbEntity
  8
Layer_1
 62
7
100
AcDbSpline
 70
8
 71
3
 72
8
 73
4
 74
0
 40
0
 40
0
 40
0
 40
0
 40
1
 40
1
 40
1
 40
1
 10
941.364466
 20
55.359787
 30
0.0
 10
940.817920
 20
55.675335
 30
0.0
 10
940.481234
 20
56.258492
 30
0.0
 10
940.481234
 20
56.889589
 30
0.0
  0
SPLINE
  5
337
100
AcDbEntity
  8
Layer_1
 62
7
100
AcDbSpline
 70
8
 71
3
 72
8
 73
4
 74
0
 40
0
 40
0
 40
0
 40
0
 40
1
 40
1
 40
1
 40
1
 10
940.481234
 20
56.889589
 30
0.0
 10
940.481234
 20
57.520686
 30
0.0
 10
940.817920
 20
58.103843
 30
0.0
 10
941.364466
 20
58.419392
 30
0.0
  0
SPLINE
  5
338
100
AcDbEntity
  8
Layer_1
 62
7
100
AcDbSpline
 70
8
 71
3
 72
8
 73
4
 74
0
 40
0
 40
0
 40
0
 40
0
 40
1
 40
1
 40
1
 40
1
 10
941.364466
 20
58.419392
 30
0.0
 10
941.911012
 20
58.734940
 30
0.0
 10
942.584384
 20
58.734940
 30
0.0
 10
943.130930
 20
58.419392
 30
0.0
  0
SPLINE
  5
339
100
AcDbEntity
  8
Layer_1
 62
7
100
AcDbSpline
 70
8
 71
3
 72
8
 73
4
 74
0
 40
0
 40
0
 40
0
 40
0
 40
1
 40
1
 40
1
 40
1
 10
943.130930
 20
58.419392
 30
0.0
 10
943.677475
 20
58.103843
 30
0.0
 10
944.014161
 20
57.520686
 30
0.0
 10
944.014161
 20
56.889589
 30
0.0
  0
LWPOLYLINE
  5
33a
100
AcDbEntity
  8
Layer_1
 62
7
100
AcDbPolyline
 90
1
 70
1
 10
907.661560
 20
52.360412
 30
0.0
  0
SPLINE
  5
33b
100
AcDbEntity
  8
Layer_1
 62
7
100
AcDbSpline
 70
8
 71
3
 72
8
 73
4
 74
0
 40
0
 40
0
 40
0
 40
0
 40
1
 40
1
 40
1
 40
1
 10
970.712461
 20
31.859932
 30
0.0
 10
970.712461
 20
31.228835
 30
0.0
 10
970.375775
 20
30.645678
 30
0.0
 10
969.829229
 20
30.330129
 30
0.0
  0
SPLINE
  5
33c
100
AcDbEntity
  8
Layer_1
 62
7
100
AcDbSpline
 70
8
 71
3
 72
8
 73
4
 74
0
 40
0
 40
0
 40
0
 40
0
 40
1
 40
1
 40
1
 40
1
 10
969.829229
 20
30.330129
 30
0.0
 10
969.282684
 20
30.014581
 30
0.0
 10
968.609311
 20
30.014581
 30
0.0
 10
968.062766
 20
30.330129
 30
0.0
  0
SPLINE
  5
33d
100
AcDbEntity
  8
Layer_1
 62
7
100
AcDbSpline
 70
8
 71
3
 72
8
 73
4
 74
0
 40
0
 40
0
 40
0
 40
0
 40
1
 40
1
 40
1
 40
1
 10
968.062766
 20
30.330129
 30
0.0
 10
967.516220
 20
30.645678
 30
0.0
 10
967.179534
 20
31.228835
 30
0.0
 10
967.179534
 20
31.859932
 30
0.0
  0
SPLINE
  5
33e
100
AcDbEntity
  8
Layer_1
 62
7
100
AcDbSpline
 70
8
 71
3
 72
8
 73
4
 74
0
 40
0
 40
0
 40
0
 40
0
 40
1
 40
1
 40
1
 40
1
 10
967.179534
 20
31.859932
 30
0.0
 10
967.179534
 20
32.491028
 30
0.0
 10
967.516220
 20
33.074186
 30
0.0
 10
968.062766
 20
33.389734
 30
0.0
  0
SPLINE
  5
33f
100
AcDbEntity
  8
Layer_1
 62
7
100
AcDbSpline
 70
8
 71
3
 72
8
 73
4
 74
0
 40
0
 40
0
 40
0
 40
0
 40
1
 40
1
 40
1
 40
1
 10
968.062766
 20
33.389734
 30
0.0
 10
968.609311
 20
33.705283
 30
0.0
 10
969.282684
 20
33.705283
 30
0.0
 10
969.829229
 20
33.389734
 30
0.0
  0
SPLINE
  5
340
100
AcDbEntity
  8
Layer_1
 62
7
100
AcDbSpline
 70
8
 71
3
 72
8
 73
4
 74
0
 40
0
 40
0
 40
0
 40
0
 40
1
 40
1
 40
1
 40
1
 10
969.829229
 20
33.389734
 30
0.0
 10
970.375775
 20
33.074186
 30
0.0
 10
970.712461
 20
32.491028
 30
0.0
 10
970.712461
 20
31.859932
 30
0.0
  0
LWPOLYLINE
  5
341
100
AcDbEntity
  8
Layer_1
 62
7
100
AcDbPolyline
 90
1
 70
1
 10
944.014161
 20
56.889589
 30
0.0
  0
SPLINE
  5
342
100
AcDbEntity
  8
Layer_1
 62
7
100
AcDbSpline
 70
8
 71
3
 72
8
 73
4
 74
0
 40
0
 40
0
 40
0
 40
0
 40
1
 40
1
 40
1
 40
1
 10
970.950840
 20
-0.321059
 30
0.0
 10
970.950840
 20
-0.952155
 30
0.0
 10
970.614154
 20
-1.535313
 30
0.0
 10
970.067608
 20
-1.850861
 30
0.0
  0
SPLINE
  5
343
100
AcDbEntity
  8
Layer_1
 62
7
100
AcDbSpline
 70
8
 71
3
 72
8
 73
4
 74
0
 40
0
 40
0
 40
0
 40
0
 40
1
 40
1
 40
1
 40
1
 10
970.067608
 20
-1.850861
 30
0.0
 10
969.521063
 20
-2.166409
 30
0.0
 10
968.847690
 20
-2.166409
 30
0.0
 10
968.301145
 20
-1.850861
 30
0.0
  0
SPLINE
  5
344
100
AcDbEntity
  8
Layer_1
 62
7
100
AcDbSpline
 70
8
 71
3
 72
8
 73
4
 74
0
 40
0
 40
0
 40
0
 40
0
 40
1
 40
1
 40
1
 40
1
 10
968.301145
 20
-1.850861
 30
0.0
 10
967.754599
 20
-1.535313
 30
0.0
 10
967.417913
 20
-0.952155
 30
0.0
 10
967.417913
 20
-0.321059
 30
0.0
  0
SPLINE
  5
345
100
AcDbEntity
  8
Layer_1
 62
7
100
AcDbSpline
 70
8
 71
3
 72
8
 73
4
 74
0
 40
0
 40
0
 40
0
 40
0
 40
1
 40
1
 40
1
 40
1
 10
967.417913
 20
-0.321059
 30
0.0
 10
967.417913
 20
0.310038
 30
0.0
 10
967.754599
 20
0.893195
 30
0.0
 10
968.301145
 20
1.208744
 30
0.0
  0
SPLINE
  5
346
100
AcDbEntity
  8
Layer_1
 62
7
100
AcDbSpline
 70
8
 71
3
 72
8
 73
4
 74
0
 40
0
 40
0
 40
0
 40
0
 40
1
 40
1
 40
1
 40
1
 10
968.301145
 20
1.208744
 30
0.0
 10
968.847690
 20
1.524292
 30
0.0
 10
969.521063
 20
1.524292
 30
0.0
 10
970.067608
 20
1.208744
 30
0.0
  0
SPLINE
  5
347
100
AcDbEntity
  8
Layer_1
 62
7
100
AcDbSpline
 70
8
 71
3
 72
8
 73
4
 74
0
 40
0
 40
0
 40
0
 40
0
 40
1
 40
1
 40
1
 40
1
 10
970.067608
 20
1.208744
 30
0.0
 10
970.614154
 20
0.893195
 30
0.0
 10
970.950840
 20
0.310038
 30
0.0
 10
970.950840
 20
-0.321059
 30
0.0
  0
LWPOLYLINE
  5
348
100
AcDbEntity
  8
Layer_1
 62
7
100
AcDbPolyline
 90
1
 70
1
 10
970.712461
 20
31.859932
 30
0.0
  0
SPLINE
  5
349
100
AcDbEntity
  8
Layer_1
 62
7
100
AcDbSpline
 70
8
 71
3
 72
8
 73
4
 74
0
 40
0
 40
0
 40
0
 40
0
 40
1
 40
1
 40
1
 40
1
 10
948.869678
 20
-23.413572
 30
0.0
 10
948.869678
 20
-24.044668
 30
0.0
 10
948.532992
 20
-24.627826
 30
0.0
 10
947.986446
 20
-24.943374
 30
0.0
  0
SPLINE
  5
34a
100
AcDbEntity
  8
Layer_1
 62
7
100
AcDbSpline
 70
8
 71
3
 72
8
 73
4
 74
0
 40
0
 40
0
 40
0
 40
0
 40
1
 40
1
 40
1
 40
1
 10
947.986446
 20
-24.943374
 30
0.0
 10
947.439901
 20
-25.258923
 30
0.0
 10
946.766529
 20
-25.258923
 30
0.0
 10
946.219983
 20
-24.943374
 30
0.0
  0
SPLINE
  5
34b
100
AcDbEntity
  8
Layer_1
 62
7
100
AcDbSpline
 70
8
 71
3
 72
8
 73
4
 74
0
 40
0
 40
0
 40
0
 40
0
 40
1
 40
1
 40
1
 40
1
 10
946.219983
 20
-24.943374
 30
0.0
 10
945.673437
 20
-24.627826
 30
0.0
 10
945.336751
 20
-24.044668
 30
0.0
 10
945.336751
 20
-23.413572
 30
0.0
  0
SPLINE
  5
34c
100
AcDbEntity
  8
Layer_1
 62
7
100
AcDbSpline
 70
8
 71
3
 72
8
 73
4
 74
0
 40
0
 40
0
 40
0
 40
0
 40
1
 40
1
 40
1
 40
1
 10
945.336751
 20
-23.413572
 30
0.0
 10
945.336751
 20
-22.782475
 30
0.0
 10
945.673437
 20
-22.199318
 30
0.0
 10
946.219983
 20
-21.883769
 30
0.0
  0
SPLINE
  5
34d
100
AcDbEntity
  8
Layer_1
 62
7
100
AcDbSpline
 70
8
 71
3
 72
8
 73
4
 74
0
 40
0
 40
0
 40
0
 40
0
 40
1
 40
1
 40
1
 40
1
 10
946.219983
 20
-21.883769
 30
0.0
 10
946.766529
 20
-21.568221
 30
0.0
 10
947.439901
 20
-21.568221
 30
0.0
 10
947.986446
 20
-21.883769
 30
0.0
  0
SPLINE
  5
34e
100
AcDbEntity
  8
Layer_1
 62
7
100
AcDbSpline
 70
8
 71
3
 72
8
 73
4
 74
0
 40
0
 40
0
 40
0
 40
0
 40
1
 40
1
 40
1
 40
1
 10
947.986446
 20
-21.883769
 30
0.0
 10
948.532992
 20
-22.199318
 30
0.0
 10
948.869678
 20
-22.782475
 30
0.0
 10
948.869678
 20
-23.413572
 30
0.0
  0
LWPOLYLINE
  5
34f
100
AcDbEntity
  8
Layer_1
 62
7
100
AcDbPolyline
 90
1
 70
1
 10
970.950840
 20
-0.321059
 30
0.0
  0
SPLINE
  5
350
100
AcDbEntity
  8
Layer_1
 62
7
100
AcDbSpline
 70
8
 71
3
 72
8
 73
4
 74
0
 40
0
 40
0
 40
0
 40
0
 40
1
 40
1
 40
1
 40
1
 10
917.012125
 20
-25.436274
 30
0.0
 10
917.012125
 20
-26.067371
 30
0.0
 10
916.675439
 20
-26.650528
 30
0.0
 10
916.128893
 20
-26.966077
 30
0.0
  0
SPLINE
  5
351
100
AcDbEntity
  8
Layer_1
 62
7
100
AcDbSpline
 70
8
 71
3
 72
8
 73
4
 74
0
 40
0
 40
0
 40
0
 40
0
 40
1
 40
1
 40
1
 40
1
 10
916.128893
 20
-26.966077
 30
0.0
 10
915.582348
 20
-27.281625
 30
0.0
 10
914.908975
 20
-27.281625
 30
0.0
 10
914.362430
 20
-26.966077
 30
0.0
  0
SPLINE
  5
352
100
AcDbEntity
  8
Layer_1
 62
7
100
AcDbSpline
 70
8
 71
3
 72
8
 73
4
 74
0
 40
0
 40
0
 40
0
 40
0
 40
1
 40
1
 40
1
 40
1
 10
914.362430
 20
-26.966077
 30
0.0
 10
913.815884
 20
-26.650528
 30
0.0
 10
913.479198
 20
-26.067371
 30
0.0
 10
913.479198
 20
-25.436274
 30
0.0
  0
SPLINE
  5
353
100
AcDbEntity
  8
Layer_1
 62
7
100
AcDbSpline
 70
8
 71
3
 72
8
 73
4
 74
0
 40
0
 40
0
 40
0
 40
0
 40
1
 40
1
 40
1
 40
1
 10
913.479198
 20
-25.436274
 30
0.0
 10
913.479198
 20
-24.805178
 30
0.0
 10
913.815884
 20
-24.222020
 30
0.0
 10
914.362430
 20
-23.906472
 30
0.0
  0
SPLINE
  5
354
100
AcDbEntity
  8
Layer_1
 62
7
100
AcDbSpline
 70
8
 71
3
 72
8
 73
4
 74
0
 40
0
 40
0
 40
0
 40
0
 40
1
 40
1
 40
1
 40
1
 10
914.362430
 20
-23.906472
 30
0.0
 10
914.908975
 20
-23.590924
 30
0.0
 10
915.582348
 20
-23.590924
 30
0.0
 10
916.128893
 20
-23.906472
 30
0.0
  0
SPLINE
  5
355
100
AcDbEntity
  8
Layer_1
 62
7
100
AcDbSpline
 70
8
 71
3
 72
8
 73
4
 74
0
 40
0
 40
0
 40
0
 40
0
 40
1
 40
1
 40
1
 40
1
 10
916.128893
 20
-23.906472
 30
0.0
 10
916.675439
 20
-24.222020
 30
0.0
 10
917.012125
 20
-24.805178
 30
0.0
 10
917.012125
 20
-25.436274
 30
0.0
  0
LWPOLYLINE
  5
356
100
AcDbEntity
  8
Layer_1
 62
7
100
AcDbPolyline
 90
1
 70
1
 10
948.869678
 20
-23.413572
 30
0.0
  0
SPLINE
  5
357
100
AcDbEntity
  8
Layer_1
 62
7
100
AcDbSpline
 70
8
 71
3
 72
8
 73
4
 74
0
 40
0
 40
0
 40
0
 40
0
 40
1
 40
1
 40
1
 40
1
 10
895.581706
 20
-9.399728
 30
0.0
 10
895.581706
 20
-10.030824
 30
0.0
 10
895.245020
 20
-10.613982
 30
0.0
 10
894.698474
 20
-10.929530
 30
0.0
  0
SPLINE
  5
358
100
AcDbEntity
  8
Layer_1
 62
7
100
AcDbSpline
 70
8
 71
3
 72
8
 73
4
 74
0
 40
0
 40
0
 40
0
 40
0
 40
1
 40
1
 40
1
 40
1
 10
894.698474
 20
-10.929530
 30
0.0
 10
894.151928
 20
-11.245078
 30
0.0
 10
893.478556
 20
-11.245078
 30
0.0
 10
892.932010
 20
-10.929530
 30
0.0
  0
SPLINE
  5
359
100
AcDbEntity
  8
Layer_1
 62
7
100
AcDbSpline
 70
8
 71
3
 72
8
 73
4
 74
0
 40
0
 40
0
 40
0
 40
0
 40
1
 40
1
 40
1
 40
1
 10
892.932010
 20
-10.929530
 30
0.0
 10
892.385465
 20
-10.613982
 30
0.0
 10
892.048779
 20
-10.030824
 30
0.0
 10
892.048779
 20
-9.399728
 30
0.0
  0
SPLINE
  5
35a
100
AcDbEntity
  8
Layer_1
 62
7
100
AcDbSpline
 70
8
 71
3
 72
8
 73
4
 74
0
 40
0
 40
0
 40
0
 40
0
 40
1
 40
1
 40
1
 40
1
 10
892.048779
 20
-9.399728
 30
0.0
 10
892.048779
 20
-8.768631
 30
0.0
 10
892.385465
 20
-8.185474
 30
0.0
 10
892.932010
 20
-7.869925
 30
0.0
  0
SPLINE
  5
35b
100
AcDbEntity
  8
Layer_1
 62
7
100
AcDbSpline
 70
8
 71
3
 72
8
 73
4
 74
0
 40
0
 40
0
 40
0
 40
0
 40
1
 40
1
 40
1
 40
1
 10
892.932010
 20
-7.869925
 30
0.0
 10
893.478556
 20
-7.554377
 30
0.0
 10
894.151928
 20
-7.554377
 30
0.0
 10
894.698474
 20
-7.869925
 30
0.0
  0
SPLINE
  5
35c
100
AcDbEntity
  8
Layer_1
 62
7
100
AcDbSpline
 70
8
 71
3
 72
8
 73
4
 74
0
 40
0
 40
0
 40
0
 40
0
 40
1
 40
1
 40
1
 40
1
 10
894.698474
 20
-7.869925
 30
0.0
 10
895.245020
 20
-8.185474
 30
0.0
 10
895.581706
 20
-8.768631
 30
0.0
 10
895.581706
 20
-9.399728
 30
0.0
  0
LWPOLYLINE
  5
35d
100
AcDbEntity
  8
Layer_1
 62
7
100
AcDbPolyline
 90
1
 70
1
 10
917.012125
 20
-25.436274
 30
0.0
  0
SPLINE
  5
35e
100
AcDbEntity
  8
Layer_1
 62
7
100
AcDbSpline
 70
8
 71
3
 72
8
 73
4
 74
0
 40
0
 40
0
 40
0
 40
0
 40
1
 40
1
 40
1
 40
1
 10
853.489475
 20
-76.602390
 30
0.0
 10
853.489475
 20
-77.227605
 30
0.0
 10
853.155927
 20
-77.805327
 30
0.0
 10
852.614475
 20
-78.117935
 30
0.0
  0
SPLINE
  5
35f
100
AcDbEntity
  8
Layer_1
 62
7
100
AcDbSpline
 70
8
 71
3
 72
8
 73
4
 74
0
 40
0
 40
0
 40
0
 40
0
 40
1
 40
1
 40
1
 40
1
 10
852.614475
 20
-78.117935
 30
0.0
 10
852.073023
 20
-78.430542
 30
0.0
 10
851.405927
 20
-78.430542
 30
0.0
 10
850.864475
 20
-78.117935
 30
0.0
  0
SPLINE
  5
360
100
AcDbEntity
  8
Layer_1
 62
7
100
AcDbSpline
 70
8
 71
3
 72
8
 73
4
 74
0
 40
0
 40
0
 40
0
 40
0
 40
1
 40
1
 40
1
 40
1
 10
850.864475
 20
-78.117935
 30
0.0
 10
850.323023
 20
-77.805327
 30
0.0
 10
849.989475
 20
-77.227605
 30
0.0
 10
849.989475
 20
-76.602390
 30
0.0
  0
SPLINE
  5
361
100
AcDbEntity
  8
Layer_1
 62
7
100
AcDbSpline
 70
8
 71
3
 72
8
 73
4
 74
0
 40
0
 40
0
 40
0
 40
0
 40
1
 40
1
 40
1
 40
1
 10
849.989475
 20
-76.602390
 30
0.0
 10
849.989475
 20
-75.977175
 30
0.0
 10
850.323023
 20
-75.399453
 30
0.0
 10
850.864475
 20
-75.086846
 30
0.0
  0
SPLINE
  5
362
100
AcDbEntity
  8
Layer_1
 62
7
100
AcDbSpline
 70
8
 71
3
 72
8
 73
4
 74
0
 40
0
 40
0
 40
0
 40
0
 40
1
 40
1
 40
1
 40
1
 10
850.864475
 20
-75.086846
 30
0.0
 10
851.405927
 20
-74.774238
 30
0.0
 10
852.073023
 20
-74.774238
 30
0.0
 10
852.614475
 20
-75.086846
 30
0.0
  0
SPLINE
  5
363
100
AcDbEntity
  8
Layer_1
 62
7
100
AcDbSpline
 70
8
 71
3
 72
8
 73
4
 74
0
 40
0
 40
0
 40
0
 40
0
 40
1
 40
1
 40
1
 40
1
 10
852.614475
 20
-75.086846
 30
0.0
 10
853.155927
 20
-75.399453
 30
0.0
 10
853.489475
 20
-75.977175
 30
0.0
 10
853.489475
 20
-76.602390
 30
0.0
  0
LWPOLYLINE
  5
364
100
AcDbEntity
  8
Layer_1
 62
7
100
AcDbPolyline
 90
1
 70
1
 10
895.581706
 20
-9.399728
 30
0.0
  0
SPLINE
  5
365
100
AcDbEntity
  8
Layer_1
 62
7
100
AcDbSpline
 70
8
 71
3
 72
8
 73
4
 74
0
 40
0
 40
0
 40
0
 40
0
 40
1
 40
1
 40
1
 40
1
 10
853.550755
 20
-76.601308
 30
0.0
 10
853.550755
 20
-77.226524
 30
0.0
 10
853.217194
 20
-77.804244
 30
0.0
 10
852.675751
 20
-78.116852
 30
0.0
  0
SPLINE
  5
366
100
AcDbEntity
  8
Layer_1
 62
7
100
AcDbSpline
 70
8
 71
3
 72
8
 73
4
 74
0
 40
0
 40
0
 40
0
 40
0
 40
1
 40
1
 40
1
 40
1
 10
852.675751
 20
-78.116852
 30
0.0
 10
852.134308
 20
-78.429460
 30
0.0
 10
851.467214
 20
-78.429460
 30
0.0
 10
850.925744
 20
-78.116852
 30
0.0
  0
SPLINE
  5
367
100
AcDbEntity
  8
Layer_1
 62
7
100
AcDbSpline
 70
8
 71
3
 72
8
 73
4
 74
0
 40
0
 40
0
 40
0
 40
0
 40
1
 40
1
 40
1
 40
1
 10
850.925744
 20
-78.116852
 30
0.0
 10
850.384301
 20
-77.804244
 30
0.0
 10
850.050767
 20
-77.226524
 30
0.0
 10
850.050767
 20
-76.601308
 30
0.0
  0
SPLINE
  5
368
100
AcDbEntity
  8
Layer_1
 62
7
100
AcDbSpline
 70
8
 71
3
 72
8
 73
4
 74
0
 40
0
 40
0
 40
0
 40
0
 40
1
 40
1
 40
1
 40
1
 10
850.050767
 20
-76.601308
 30
0.0
 10
850.050767
 20
-75.976092
 30
0.0
 10
850.384301
 20
-75.398372
 30
0.0
 10
850.925744
 20
-75.085764
 30
0.0
  0
SPLINE
  5
369
100
AcDbEntity
  8
Layer_1
 62
7
100
AcDbSpline
 70
8
 71
3
 72
8
 73
4
 74
0
 40
0
 40
0
 40
0
 40
0
 40
1
 40
1
 40
1
 40
1
 10
850.925744
 20
-75.085764
 30
0.0
 10
851.467214
 20
-74.773156
 30
0.0
 10
852.134308
 20
-74.773156
 30
0.0
 10
852.675751
 20
-75.085764
 30
0.0
  0
SPLINE
  5
36a
100
AcDbEntity
  8
Layer_1
 62
7
100
AcDbSpline
 70
8
 71
3
 72
8
 73
4
 74
0
 40
0
 40
0
 40
0
 40
0
 40
1
 40
1
 40
1
 40
1
 10
852.675751
 20
-75.085764
 30
0.0
 10
853.217194
 20
-75.398372
 30
0.0
 10
853.550755
 20
-75.976092
 30
0.0
 10
853.550755
 20
-76.601308
 30
0.0
  0
SPLINE
  5
36b
100
AcDbEntity
  8
Layer_1
 62
7
100
AcDbSpline
 70
8
 71
3
 72
8
 73
4
 74
0
 40
0
 40
0
 40
0
 40
0
 40
1
 40
1
 40
1
 40
1
 10
838.253308
 20
-80.994208
 30
0.0
 10
838.253308
 20
-81.625304
 30
0.0
 10
837.916622
 20
-82.208462
 30
0.0
 10
837.370076
 20
-82.524010
 30
0.0
  0
SPLINE
  5
36c
100
AcDbEntity
  8
Layer_1
 62
7
100
AcDbSpline
 70
8
 71
3
 72
8
 73
4
 74
0
 40
0
 40
0
 40
0
 40
0
 40
1
 40
1
 40
1
 40
1
 10
837.370076
 20
-82.524010
 30
0.0
 10
836.823530
 20
-82.839558
 30
0.0
 10
836.150158
 20
-82.839558
 30
0.0
 10
835.603612
 20
-82.524010
 30
0.0
  0
SPLINE
  5
36d
100
AcDbEntity
  8
Layer_1
 62
7
100
AcDbSpline
 70
8
 71
3
 72
8
 73
4
 74
0
 40
0
 40
0
 40
0
 40
0
 40
1
 40
1
 40
1
 40
1
 10
835.603612
 20
-82.524010
 30
0.0
 10
835.057067
 20
-82.208462
 30
0.0
 10
834.720381
 20
-81.625304
 30
0.0
 10
834.720381
 20
-80.994208
 30
0.0
  0
SPLINE
  5
36e
100
AcDbEntity
  8
Layer_1
 62
7
100
AcDbSpline
 70
8
 71
3
 72
8
 73
4
 74
0
 40
0
 40
0
 40
0
 40
0
 40
1
 40
1
 40
1
 40
1
 10
834.720381
 20
-80.994208
 30
0.0
 10
834.720381
 20
-80.363111
 30
0.0
 10
835.057067
 20
-79.779954
 30
0.0
 10
835.603612
 20
-79.464405
 30
0.0
  0
SPLINE
  5
36f
100
AcDbEntity
  8
Layer_1
 62
7
100
AcDbSpline
 70
8
 71
3
 72
8
 73
4
 74
0
 40
0
 40
0
 40
0
 40
0
 40
1
 40
1
 40
1
 40
1
 10
835.603612
 20
-79.464405
 30
0.0
 10
836.150158
 20
-79.148857
 30
0.0
 10
836.823530
 20
-79.148857
 30
0.0
 10
837.370076
 20
-79.464405
 30
0.0
  0
SPLINE
  5
370
100
AcDbEntity
  8
Layer_1
 62
7
100
AcDbSpline
 70
8
 71
3
 72
8
 73
4
 74
0
 40
0
 40
0
 40
0
 40
0
 40
1
 40
1
 40
1
 40
1
 10
837.370076
 20
-79.464405
 30
0.0
 10
837.916622
 20
-79.779954
 30
0.0
 10
838.253308
 20
-80.363111
 30
0.0
 10
838.253308
 20
-80.994208
 30
0.0
  0
LWPOLYLINE
  5
371
100
AcDbEntity
  8
Layer_1
 62
7
100
AcDbPolyline
 90
1
 70
1
 10
853.489475
 20
-76.602390
 30
0.0
  0
SPLINE
  5
372
100
AcDbEntity
  8
Layer_1
 62
7
100
AcDbSpline
 70
8
 71
3
 72
8
 73
4
 74
0
 40
0
 40
0
 40
0
 40
0
 40
1
 40
1
 40
1
 40
1
 10
838.248040
 20
-72.358438
 30
0.0
 10
838.248040
 20
-72.989535
 30
0.0
 10
837.911354
 20
-73.572692
 30
0.0
 10
837.364808
 20
-73.888240
 30
0.0
  0
SPLINE
  5
373
100
AcDbEntity
  8
Layer_1
 62
7
100
AcDbSpline
 70
8
 71
3
 72
8
 73
4
 74
0
 40
0
 40
0
 40
0
 40
0
 40
1
 40
1
 40
1
 40
1
 10
837.364808
 20
-73.888240
 30
0.0
 10
836.818263
 20
-74.203789
 30
0.0
 10
836.144890
 20
-74.203789
 30
0.0
 10
835.598345
 20
-73.888240
 30
0.0
  0
SPLINE
  5
374
100
AcDbEntity
  8
Layer_1
 62
7
100
AcDbSpline
 70
8
 71
3
 72
8
 73
4
 74
0
 40
0
 40
0
 40
0
 40
0
 40
1
 40
1
 40
1
 40
1
 10
835.598345
 20
-73.888240
 30
0.0
 10
835.051799
 20
-73.572692
 30
0.0
 10
834.715113
 20
-72.989535
 30
0.0
 10
834.715113
 20
-72.358438
 30
0.0
  0
SPLINE
  5
375
100
AcDbEntity
  8
Layer_1
 62
7
100
AcDbSpline
 70
8
 71
3
 72
8
 73
4
 74
0
 40
0
 40
0
 40
0
 40
0
 40
1
 40
1
 40
1
 40
1
 10
834.715113
 20
-72.358438
 30
0.0
 10
834.715113
 20
-71.727341
 30
0.0
 10
835.051799
 20
-71.144184
 30
0.0
 10
835.598345
 20
-70.828635
 30
0.0
  0
SPLINE
  5
376
100
AcDbEntity
  8
Layer_1
 62
7
100
AcDbSpline
 70
8
 71
3
 72
8
 73
4
 74
0
 40
0
 40
0
 40
0
 40
0
 40
1
 40
1
 40
1
 40
1
 10
835.598345
 20
-70.828635
 30
0.0
 10
836.144890
 20
-70.513087
 30
0.0
 10
836.818263
 20
-70.513087
 30
0.0
 10
837.364808
 20
-70.828635
 30
0.0
  0
SPLINE
  5
377
100
AcDbEntity
  8
Layer_1
 62
7
100
AcDbSpline
 70
8
 71
3
 72
8
 73
4
 74
0
 40
0
 40
0
 40
0
 40
0
 40
1
 40
1
 40
1
 40
1
 10
837.364808
 20
-70.828635
 30
0.0
 10
837.911354
 20
-71.144184
 30
0.0
 10
838.248040
 20
-71.727341
 30
0.0
 10
838.248040
 20
-72.358438
 30
0.0
  0
LWPOLYLINE
  5
378
100
AcDbEntity
  8
Layer_1
 62
7
100
AcDbPolyline
 90
1
 70
1
 10
838.253308
 20
-80.994208
 30
0.0
  0
SPLINE
  5
379
100
AcDbEntity
  8
Layer_1
 62
7
100
AcDbSpline
 70
8
 71
3
 72
8
 73
4
 74
0
 40
0
 40
0
 40
0
 40
0
 40
1
 40
1
 40
1
 40
1
 10
888.717377
 20
-72.353927
 30
0.0
 10
888.717377
 20
-72.985023
 30
0.0
 10
888.380691
 20
-73.568181
 30
0.0
 10
887.834145
 20
-73.883729
 30
0.0
  0
SPLINE
  5
37a
100
AcDbEntity
  8
Layer_1
 62
7
100
AcDbSpline
 70
8
 71
3
 72
8
 73
4
 74
0
 40
0
 40
0
 40
0
 40
0
 40
1
 40
1
 40
1
 40
1
 10
887.834145
 20
-73.883729
 30
0.0
 10
887.287600
 20
-74.199277
 30
0.0
 10
886.614227
 20
-74.199277
 30
0.0
 10
886.067682
 20
-73.883729
 30
0.0
  0
SPLINE
  5
37b
100
AcDbEntity
  8
Layer_1
 62
7
100
AcDbSpline
 70
8
 71
3
 72
8
 73
4
 74
0
 40
0
 40
0
 40
0
 40
0
 40
1
 40
1
 40
1
 40
1
 10
886.067682
 20
-73.883729
 30
0.0
 10
885.521136
 20
-73.568181
 30
0.0
 10
885.184450
 20
-72.985023
 30
0.0
 10
885.184450
 20
-72.353927
 30
0.0
  0
SPLINE
  5
37c
100
AcDbEntity
  8
Layer_1
 62
7
100
AcDbSpline
 70
8
 71
3
 72
8
 73
4
 74
0
 40
0
 40
0
 40
0
 40
0
 40
1
 40
1
 40
1
 40
1
 10
885.184450
 20
-72.353927
 30
0.0
 10
885.184450
 20
-71.722830
 30
0.0
 10
885.521136
 20
-71.139673
 30
0.0
 10
886.067682
 20
-70.824124
 30
0.0
  0
SPLINE
  5
37d
100
AcDbEntity
  8
Layer_1
 62
7
100
AcDbSpline
 70
8
 71
3
 72
8
 73
4
 74
0
 40
0
 40
0
 40
0
 40
0
 40
1
 40
1
 40
1
 40
1
 10
886.067682
 20
-70.824124
 30
0.0
 10
886.614227
 20
-70.508576
 30
0.0
 10
887.287600
 20
-70.508576
 30
0.0
 10
887.834145
 20
-70.824124
 30
0.0
  0
SPLINE
  5
37e
100
AcDbEntity
  8
Layer_1
 62
7
100
AcDbSpline
 70
8
 71
3
 72
8
 73
4
 74
0
 40
0
 40
0
 40
0
 40
0
 40
1
 40
1
 40
1
 40
1
 10
887.834145
 20
-70.824124
 30
0.0
 10
888.380691
 20
-71.139673
 30
0.0
 10
888.717377
 20
-71.722830
 30
0.0
 10
888.717377
 20
-72.353927
 30
0.0
  0
LWPOLYLINE
  5
37f
100
AcDbEntity
  8
Layer_1
 62
7
100
AcDbPolyline
 90
1
 70
1
 10
838.248040
 20
-72.358438
 30
0.0
  0
SPLINE
  5
380
100
AcDbEntity
  8
Layer_1
 62
7
100
AcDbSpline
 70
8
 71
3
 72
8
 73
4
 74
0
 40
0
 40
0
 40
0
 40
0
 40
1
 40
1
 40
1
 40
1
 10
888.721587
 20
-80.984683
 30
0.0
 10
888.721587
 20
-81.615779
 30
0.0
 10
888.384901
 20
-82.198937
 30
0.0
 10
887.838355
 20
-82.514485
 30
0.0
  0
SPLINE
  5
381
100
AcDbEntity
  8
Layer_1
 62
7
100
AcDbSpline
 70
8
 71
3
 72
8
 73
4
 74
0
 40
0
 40
0
 40
0
 40
0
 40
1
 40
1
 40
1
 40
1
 10
887.838355
 20
-82.514485
 30
0.0
 10
887.291809
 20
-82.830033
 30
0.0
 10
886.618437
 20
-82.830033
 30
0.0
 10
886.071891
 20
-82.514485
 30
0.0
  0
SPLINE
  5
382
100
AcDbEntity
  8
Layer_1
 62
7
100
AcDbSpline
 70
8
 71
3
 72
8
 73
4
 74
0
 40
0
 40
0
 40
0
 40
0
 40
1
 40
1
 40
1
 40
1
 10
886.071891
 20
-82.514485
 30
0.0
 10
885.525345
 20
-82.198937
 30
0.0
 10
885.188659
 20
-81.615779
 30
0.0
 10
885.188659
 20
-80.984683
 30
0.0
  0
SPLINE
  5
383
100
AcDbEntity
  8
Layer_1
 62
7
100
AcDbSpline
 70
8
 71
3
 72
8
 73
4
 74
0
 40
0
 40
0
 40
0
 40
0
 40
1
 40
1
 40
1
 40
1
 10
885.188659
 20
-80.984683
 30
0.0
 10
885.188659
 20
-80.353586
 30
0.0
 10
885.525345
 20
-79.770429
 30
0.0
 10
886.071891
 20
-79.454880
 30
0.0
  0
SPLINE
  5
384
100
AcDbEntity
  8
Layer_1
 62
7
100
AcDbSpline
 70
8
 71
3
 72
8
 73
4
 74
0
 40
0
 40
0
 40
0
 40
0
 40
1
 40
1
 40
1
 40
1
 10
886.071891
 20
-79.454880
 30
0.0
 10
886.618437
 20
-79.139332
 30
0.0
 10
887.291809
 20
-79.139332
 30
0.0
 10
887.838355
 20
-79.454880
 30
0.0
  0
SPLINE
  5
385
100
AcDbEntity
  8
Layer_1
 62
7
100
AcDbSpline
 70
8
 71
3
 72
8
 73
4
 74
0
 40
0
 40
0
 40
0
 40
0
 40
1
 40
1
 40
1
 40
1
 10
887.838355
 20
-79.454880
 30
0.0
 10
888.384901
 20
-79.770429
 30
0.0
 10
888.721587
 20
-80.353586
 30
0.0
 10
888.721587
 20
-80.984683
 30
0.0
  0
LWPOLYLINE
  5
386
100
AcDbEntity
  8
Layer_1
 62
7
100
AcDbPolyline
 90
1
 70
1
 10
888.717377
 20
-72.353927
 30
0.0
  0
SPLINE
  5
387
100
AcDbEntity
  8
Layer_1
 62
7
100
AcDbSpline
 70
8
 71
3
 72
8
 73
4
 74
0
 40
0
 40
0
 40
0
 40
0
 40
1
 40
1
 40
1
 40
1
 10
892.032530
 20
-76.948502
 30
0.0
 10
892.032530
 20
-91.443603
 30
0.0
 10
884.299477
 20
-104.837629
 30
0.0
 10
871.746336
 20
-112.085179
 30
0.0
  0
SPLINE
  5
388
100
AcDbEntity
  8
Layer_1
 62
7
100
AcDbSpline
 70
8
 71
3
 72
8
 73
4
 74
0
 40
0
 40
0
 40
0
 40
0
 40
1
 40
1
 40
1
 40
1
 10
871.746336
 20
-112.085179
 30
0.0
 10
859.193196
 20
-119.332730
 30
0.0
 10
843.727089
 20
-119.332730
 30
0.0
 10
831.173949
 20
-112.085179
 30
0.0
  0
SPLINE
  5
389
100
AcDbEntity
  8
Layer_1
 62
7
100
AcDbSpline
 70
8
 71
3
 72
8
 73
4
 74
0
 40
0
 40
0
 40
0
 40
0
 40
1
 40
1
 40
1
 40
1
 10
831.173949
 20
-112.085179
 30
0.0
 10
818.620808
 20
-104.837629
 30
0.0
 10
810.887755
 20
-91.443603
 30
0.0
 10
810.887755
 20
-76.948502
 30
0.0
  0
SPLINE
  5
38a
100
AcDbEntity
  8
Layer_1
 62
7
100
AcDbSpline
 70
8
 71
3
 72
8
 73
4
 74
0
 40
0
 40
0
 40
0
 40
0
 40
1
 40
1
 40
1
 40
1
 10
810.887755
 20
-76.948502
 30
0.0
 10
810.887755
 20
-62.453400
 30
0.0
 10
818.620808
 20
-49.059375
 30
0.0
 10
831.173949
 20
-41.811824
 30
0.0
  0
SPLINE
  5
38b
100
AcDbEntity
  8
Layer_1
 62
7
100
AcDbSpline
 70
8
 71
3
 72
8
 73
4
 74
0
 40
0
 40
0
 40
0
 40
0
 40
1
 40
1
 40
1
 40
1
 10
831.173949
 20
-41.811824
 30
0.0
 10
843.727089
 20
-34.564273
 30
0.0
 10
859.193196
 20
-34.564273
 30
0.0
 10
871.746336
 20
-41.811824
 30
0.0
  0
SPLINE
  5
38c
100
AcDbEntity
  8
Layer_1
 62
7
100
AcDbSpline
 70
8
 71
3
 72
8
 73
4
 74
0
 40
0
 40
0
 40
0
 40
0
 40
1
 40
1
 40
1
 40
1
 10
871.746336
 20
-41.811824
 30
0.0
 10
884.299477
 20
-49.059375
 30
0.0
 10
892.032530
 20
-62.453400
 30
0.0
 10
892.032530
 20
-76.948502
 30
0.0
  0
LWPOLYLINE
  5
38d
100
AcDbEntity
  8
Layer_1
 62
7
100
AcDbPolyline
 90
1
 70
1
 10
888.721587
 20
-80.984683
 30
0.0
  0
LWPOLYLINE
  5
38e
100
AcDbEntity
  8
Layer_1
 62
7
100
AcDbPolyline
 90
1
 70
1
 10
892.032530
 20
-76.948502
 30
0.0
  0
ENDSEC
  0
SECTION
  2
OBJECTS
  0
DICTIONARY
  5
C
330
0
100
AcDbDictionary
  3
ACAD_GROUP
350
D
  3
ACAD_MLINESTYLE
350
17
  0
DICTIONARY
  5
D
330
C
100
AcDbDictionary
  0
DICTIONARY
  5
1A
330
C
100
AcDbDictionary
  0
DICTIONARY
  5
17
330
C
100
AcDbDictionary
  3
STANDARD
350
18
  0
DICTIONARY
  5
19
330
C
100
AcDbDictionary
  0
ENDSEC
  0
EOF
